ISO-10303-21;
HEADER;
FILE_DESCRIPTION (( 'STEP AP203' ),
    '1' );
FILE_NAME ('076e.STEP',
    '2022-07-07T10:06:56',
    ( '' ),
    ( '' ),
    'SwSTEP 2.0',
    'SolidWorks 2019',
    '' );
FILE_SCHEMA (( 'CONFIG_CONTROL_DESIGN' ));
ENDSEC;

DATA;
#1 = DIRECTION ( 'NONE',  ( 1.000000000000000000, 0.000000000000000000, 0.000000000000000000 ) ) ;
#2 = CARTESIAN_POINT ( 'NONE',  ( 0.000000000000000000, 0.000000000000000000, 5.199999999999982414 ) ) ;
#3 = DIRECTION ( 'NONE',  ( 1.000000000000000000, 0.000000000000000000, 0.000000000000000000 ) ) ;
#4 = CARTESIAN_POINT ( 'NONE',  ( 0.000000000000000000, 0.000000000000000000, 5.000000000000000000 ) ) ;
#5 = APPROVAL_PERSON_ORGANIZATION ( #81, #49, #221 ) ;
#6 = APPLICATION_PROTOCOL_DEFINITION ( 'international standard', 'config_control_design', 1994, #125 ) ;
#7 = COORDINATED_UNIVERSAL_TIME_OFFSET ( 1, 0, .AHEAD. ) ;
#8 = EDGE_CURVE ( 'NONE', #234, #165, #213, .T. ) ;
#9 = COORDINATED_UNIVERSAL_TIME_OFFSET ( 1, 0, .AHEAD. ) ;
#10 = APPROVAL_STATUS ( 'not_yet_approved' ) ;
#11 = ORGANIZATION ( 'NEURÈENÝ', 'NEURÈENÝ', '' ) ;
#12 = ORIENTED_EDGE ( 'NONE', *, *, #110, .T. ) ;
#13 = ORIENTED_EDGE ( 'NONE', *, *, #23, .F. ) ;
#14 = ORIENTED_EDGE ( 'NONE', *, *, #8, .T. ) ;
#15 = AXIS2_PLACEMENT_3D ( 'NONE', #260, #145, #259 ) ;
#16 = ORIENTED_EDGE ( 'NONE', *, *, #110, .F. ) ;
#17 = PLANE ( 'NONE',  #44 ) ;
#18 = PRODUCT_DEFINITION ( 'NEZNÁMÝ', '', #241, #273 ) ;
#19 = CYLINDRICAL_SURFACE ( 'NONE', #176, 6.000000000000000888 ) ;
#20 = AXIS2_PLACEMENT_3D ( 'NONE', #78, #178, #29 ) ;
#21 = DIRECTION ( 'NONE',  ( 1.000000000000000000, 0.000000000000000000, -0.000000000000000000 ) ) ;
#22 = CARTESIAN_POINT ( 'NONE',  ( 0.000000000000000000, 0.000000000000000000, 5.000000000000000000 ) ) ;
#23 = EDGE_CURVE ( 'NONE', #230, #272, #119, .T. ) ;
#24 = CARTESIAN_POINT ( 'NONE',  ( 3.500000000000000000, 4.286263797015736595E-16, 320.0000000000000000 ) ) ;
#25 = CIRCLE ( 'NONE', #106, 3.500000000000000000 ) ;
#26 = DIRECTION ( 'NONE',  ( 0.000000000000000000, 0.000000000000000000, 1.000000000000000000 ) ) ;
#27 = PERSON_AND_ORGANIZATION ( #132, #11 ) ;
#28 = CC_DESIGN_PERSON_AND_ORGANIZATION_ASSIGNMENT ( #206, #298, ( #124 ) ) ;
#29 = DIRECTION ( 'NONE',  ( 1.000000000000000000, 0.000000000000000000, 0.000000000000000000 ) ) ;
#30 = DIRECTION ( 'NONE',  ( 1.000000000000000000, 0.000000000000000000, 0.000000000000000000 ) ) ;
#31 = CARTESIAN_POINT ( 'NONE',  ( 0.000000000000000000, 0.000000000000000000, 5.199999999999982414 ) ) ;
#32 = EDGE_LOOP ( 'NONE', ( #252, #299, #159, #210 ) ) ;
#33 = VERTEX_POINT ( 'NONE', #286 ) ;
#34 = PERSON_AND_ORGANIZATION ( #132, #11 ) ;
#35 = EDGE_LOOP ( 'NONE', ( #12, #249 ) ) ;
#36 = CIRCLE ( 'NONE', #80, 3.700000000000000178 ) ;
#37 = EDGE_LOOP ( 'NONE', ( #111, #14, #16, #185 ) ) ;
#38 =( GEOMETRIC_REPRESENTATION_CONTEXT ( 3 ) GLOBAL_UNCERTAINTY_ASSIGNED_CONTEXT ( ( #79 ) ) GLOBAL_UNIT_ASSIGNED_CONTEXT ( ( #296, #73, #172 ) ) REPRESENTATION_CONTEXT ( 'NONE', 'WORKASPACE' ) );
#39 = ORIENTED_EDGE ( 'NONE', *, *, #265, .T. ) ;
#40 = DIRECTION ( 'NONE',  ( 0.000000000000000000, 0.000000000000000000, 1.000000000000000000 ) ) ;
#41 = CARTESIAN_POINT ( 'NONE',  ( 0.000000000000000000, 0.000000000000000000, 320.0000000000000000 ) ) ;
#42 = CC_DESIGN_PERSON_AND_ORGANIZATION_ASSIGNMENT ( #269, #151, ( #18 ) ) ;
#43 = PRODUCT_DEFINITION_SHAPE ( 'NONE', 'NONE',  #18 ) ;
#44 = AXIS2_PLACEMENT_3D ( 'NONE', #41, #118, #307 ) ;
#45 = DIRECTION ( 'NONE',  ( -0.000000000000000000, -0.000000000000000000, -1.000000000000000000 ) ) ;
#46 = EDGE_CURVE ( 'NONE', #272, #230, #224, .T. ) ;
#47 = CARTESIAN_POINT ( 'NONE',  ( -3.700000000000000178, 4.531193156845206201E-16, 4.999999999999991118 ) ) ;
#48 = FACE_OUTER_BOUND ( 'NONE', #205, .T. ) ;
#49 = APPROVAL ( #223, 'NEURÈENÝ' ) ;
#50 = CARTESIAN_POINT ( 'NONE',  ( 3.500000000000000000, 4.286263797015736595E-16, 320.0000000000000000 ) ) ;
#51 = LOCAL_TIME ( 12, 6, 56.00000000000000000, #184 ) ;
#52 = DIRECTION ( 'NONE',  ( 0.000000000000000000, 0.000000000000000000, 1.000000000000000000 ) ) ;
#53 = CARTESIAN_POINT ( 'NONE',  ( 0.000000000000000000, 0.000000000000000000, 5.000000000000000000 ) ) ;
#54 = ADVANCED_FACE ( 'NONE', ( #301 ), #86, .T. ) ;
#55 = AXIS2_PLACEMENT_3D ( 'NONE', #31, #196, #126 ) ;
#56 = CARTESIAN_POINT ( 'NONE',  ( -6.000000000000000888, 0.000000000000000000, 5.000000000000000000 ) ) ;
#57 = CALENDAR_DATE ( 2022, 7, 7 ) ;
#58 = DIRECTION ( 'NONE',  ( 1.224646799147353207E-16, 1.000000000000000000, -0.000000000000000000 ) ) ;
#59 = SECURITY_CLASSIFICATION_LEVEL ( 'unclassified' ) ;
#60 = ORIENTED_EDGE ( 'NONE', *, *, #284, .T. ) ;
#61 = ORIENTED_EDGE ( 'NONE', *, *, #255, .T. ) ;
#62 = DATE_AND_TIME ( #85, #149 ) ;
#63 = ORIENTED_EDGE ( 'NONE', *, *, #270, .F. ) ;
#64 = VERTEX_POINT ( 'NONE', #293 ) ;
#65 = LOCAL_TIME ( 12, 6, 56.00000000000000000, #9 ) ;
#66 = CC_DESIGN_SECURITY_CLASSIFICATION ( #124, ( #241 ) ) ;
#67 = DIRECTION ( 'NONE',  ( -0.000000000000000000, -0.000000000000000000, -1.000000000000000000 ) ) ;
#68 = PLANE ( 'NONE',  #271 ) ;
#69 = DIRECTION ( 'NONE',  ( 1.000000000000000000, 0.000000000000000000, -0.000000000000000000 ) ) ;
#70 = CARTESIAN_POINT ( 'NONE',  ( 0.000000000000000000, 0.000000000000000000, 5.199999999999982414 ) ) ;
#71 = DIRECTION ( 'NONE',  ( 1.000000000000000000, 0.000000000000000000, 0.000000000000000000 ) ) ;
#72 = ADVANCED_FACE ( 'NONE', ( #262 ), #19, .T. ) ;
#73 =( NAMED_UNIT ( * ) PLANE_ANGLE_UNIT ( ) SI_UNIT ( $, .RADIAN. ) );
#74 = VECTOR ( 'NONE', #243, 1000.000000000000000 ) ;
#75 = DATE_AND_TIME ( #198, #177 ) ;
#76 = CARTESIAN_POINT ( 'NONE',  ( 0.000000000000000000, 0.000000000000000000, 0.000000000000000000 ) ) ;
#77 = ADVANCED_FACE ( 'NONE', ( #235 ), #68, .F. ) ;
#78 = CARTESIAN_POINT ( 'NONE',  ( 0.000000000000000000, 0.000000000000000000, 5.000000000000000000 ) ) ;
#79 = UNCERTAINTY_MEASURE_WITH_UNIT (LENGTH_MEASURE( 1.000000000000000082E-05 ), #296, 'distance_accuracy_value', 'NONE');
#80 = AXIS2_PLACEMENT_3D ( 'NONE', #218, #67, #71 ) ;
#81 = PERSON_AND_ORGANIZATION ( #132, #11 ) ;
#82 = PERSON_AND_ORGANIZATION_ROLE ( 'creator' ) ;
#83 = ORIENTED_EDGE ( 'NONE', *, *, #130, .T. ) ;
#84 = CC_DESIGN_PERSON_AND_ORGANIZATION_ASSIGNMENT ( #34, #276, ( #241 ) ) ;
#85 = CALENDAR_DATE ( 2022, 7, 7 ) ;
#86 = CYLINDRICAL_SURFACE ( 'NONE', #219, 3.500000000000000000 ) ;
#87 = AXIS2_PLACEMENT_3D ( 'NONE', #258, #229, #138 ) ;
#88 = PERSON_AND_ORGANIZATION ( #132, #11 ) ;
#89 = ORIENTED_EDGE ( 'NONE', *, *, #144, .T. ) ;
#90 = ORIENTED_EDGE ( 'NONE', *, *, #248, .T. ) ;
#91 = EDGE_LOOP ( 'NONE', ( #117, #181 ) ) ;
#92 = DIRECTION ( 'NONE',  ( -0.000000000000000000, -0.000000000000000000, -1.000000000000000000 ) ) ;
#93 = AXIS2_PLACEMENT_3D ( 'NONE', #240, #26, #30 ) ;
#94 = AXIS2_PLACEMENT_3D ( 'NONE', #53, #103, #201 ) ;
#95 = CARTESIAN_POINT ( 'NONE',  ( -6.000000000000000888, 0.000000000000000000, 0.000000000000000000 ) ) ;
#96 = CC_DESIGN_PERSON_AND_ORGANIZATION_ASSIGNMENT ( #27, #203, ( #279 ) ) ;
#97 = DIRECTION ( 'NONE',  ( 0.000000000000000000, 0.000000000000000000, 1.000000000000000000 ) ) ;
#98 = AXIS2_PLACEMENT_3D ( 'NONE', #233, #58, #211 ) ;
#99 = CYLINDRICAL_SURFACE ( 'NONE', #158, 3.500000000000000000 ) ;
#100 = CIRCLE ( 'NONE', #15, 0.1999999999999996503 ) ;
#101 = FACE_OUTER_BOUND ( 'NONE', #208, .T. ) ;
#102 = CARTESIAN_POINT ( 'NONE',  ( -6.000000000000000888, 0.000000000000000000, 5.000000000000000000 ) ) ;
#103 = DIRECTION ( 'NONE',  ( 0.000000000000000000, 0.000000000000000000, 1.000000000000000000 ) ) ;
#104 = CALENDAR_DATE ( 2022, 7, 7 ) ;
#105 = DIRECTION ( 'NONE',  ( 1.000000000000000000, 0.000000000000000000, 0.000000000000000000 ) ) ;
#106 = AXIS2_PLACEMENT_3D ( 'NONE', #70, #212, #3 ) ;
#107 = APPROVAL_ROLE ( '' ) ;
#108 = ORIENTED_EDGE ( 'NONE', *, *, #202, .F. ) ;
#109 = APPROVAL_PERSON_ORGANIZATION ( #129, #140, #107 ) ;
#110 = EDGE_CURVE ( 'NONE', #64, #165, #36, .T. ) ;
#111 = ORIENTED_EDGE ( 'NONE', *, *, #130, .F. ) ;
#112 = PERSON_AND_ORGANIZATION ( #132, #11 ) ;
#113 = EDGE_LOOP ( 'NONE', ( #108, #156, #90, #114 ) ) ;
#114 = ORIENTED_EDGE ( 'NONE', *, *, #23, .T. ) ;
#115 = CIRCLE ( 'NONE', #292, 3.500000000000000000 ) ;
#116 = CALENDAR_DATE ( 2022, 7, 7 ) ;
#117 = ORIENTED_EDGE ( 'NONE', *, *, #270, .T. ) ;
#118 = DIRECTION ( 'NONE',  ( 0.000000000000000000, 0.000000000000000000, 1.000000000000000000 ) ) ;
#119 = CIRCLE ( 'NONE', #153, 6.000000000000000888 ) ;
#120 = DIRECTION ( 'NONE',  ( -0.000000000000000000, -0.000000000000000000, -1.000000000000000000 ) ) ;
#121 = ADVANCED_FACE ( 'NONE', ( #239 ), #257, .F. ) ;
#122 = CARTESIAN_POINT ( 'NONE',  ( 0.000000000000000000, 0.000000000000000000, 5.000000000000000000 ) ) ;
#123 = CARTESIAN_POINT ( 'NONE',  ( -3.500000000000000000, 0.000000000000000000, 320.0000000000000000 ) ) ;
#124 = SECURITY_CLASSIFICATION ( '', '', #59 ) ;
#125 = APPLICATION_CONTEXT ( 'configuration controlled 3d designs of mechanical parts and assemblies' ) ;
#126 = DIRECTION ( 'NONE',  ( 1.000000000000000000, 0.000000000000000000, 0.000000000000000000 ) ) ;
#127 = DIRECTION ( 'NONE',  ( 1.000000000000000000, 0.000000000000000000, 0.000000000000000000 ) ) ;
#128 = VERTEX_POINT ( 'NONE', #291 ) ;
#129 = PERSON_AND_ORGANIZATION ( #132, #11 ) ;
#130 = EDGE_CURVE ( 'NONE', #234, #33, #25, .T. ) ;
#131 = DIRECTION ( 'NONE',  ( 1.000000000000000000, 0.000000000000000000, 0.000000000000000000 ) ) ;
#132 = PERSON ( 'NEURÈENÝ', 'NEURÈENÝ', 'NEURÈENÝ', ('NEURÈENÝ'), ('NEURÈENÝ'), ('NEURÈENÝ') ) ;
#133 = ORIENTED_EDGE ( 'NONE', *, *, #46, .T. ) ;
#134 = APPROVAL_DATE_TIME ( #62, #190 ) ;
#135 = VERTEX_POINT ( 'NONE', #24 ) ;
#136 = EDGE_LOOP ( 'NONE', ( #207, #231, #133, #161 ) ) ;
#137 = VECTOR ( 'NONE', #120, 1000.000000000000000 ) ;
#138 = DIRECTION ( 'NONE',  ( 1.000000000000000000, 0.000000000000000000, 0.000000000000000000 ) ) ;
#139 = CARTESIAN_POINT ( 'NONE',  ( 6.000000000000000888, 7.347880794884120722E-16, 5.000000000000000000 ) ) ;
#140 = APPROVAL ( #278, 'NEURÈENÝ' ) ;
#141 = DIRECTION ( 'NONE',  ( -1.000000000000000000, 0.000000000000000000, 0.000000000000000000 ) ) ;
#142 = AXIS2_PLACEMENT_3D ( 'NONE', #295, #52, #127 ) ;
#143 = CYLINDRICAL_SURFACE ( 'NONE', #246, 6.000000000000000888 ) ;
#144 = EDGE_CURVE ( 'NONE', #162, #234, #167, .T. ) ;
#145 = DIRECTION ( 'NONE',  ( 0.000000000000000000, -1.000000000000000000, 0.000000000000000000 ) ) ;
#146 = ADVANCED_FACE ( 'NONE', ( #101 ), #99, .T. ) ;
#147 = FACE_OUTER_BOUND ( 'NONE', #91, .T. ) ;
#148 = CIRCLE ( 'NONE', #94, 6.000000000000000888 ) ;
#149 = LOCAL_TIME ( 12, 6, 56.00000000000000000, #155 ) ;
#150 = DIRECTION ( 'NONE',  ( 1.000000000000000000, 0.000000000000000000, 0.000000000000000000 ) ) ;
#151 = PERSON_AND_ORGANIZATION_ROLE ( 'creator' ) ;
#152 = DIRECTION ( 'NONE',  ( -0.000000000000000000, -0.000000000000000000, -1.000000000000000000 ) ) ;
#153 = AXIS2_PLACEMENT_3D ( 'NONE', #254, #306, #131 ) ;
#154 = VECTOR ( 'NONE', #152, 1000.000000000000000 ) ;
#155 = COORDINATED_UNIVERSAL_TIME_OFFSET ( 1, 0, .AHEAD. ) ;
#156 = ORIENTED_EDGE ( 'NONE', *, *, #284, .F. ) ;
#157 = COORDINATED_UNIVERSAL_TIME_OFFSET ( 1, 0, .AHEAD. ) ;
#158 = AXIS2_PLACEMENT_3D ( 'NONE', #289, #170, #236 ) ;
#159 = ORIENTED_EDGE ( 'NONE', *, *, #173, .T. ) ;
#160 = DATE_TIME_ROLE ( 'creation_date' ) ;
#161 = ORIENTED_EDGE ( 'NONE', *, *, #248, .F. ) ;
#162 = VERTEX_POINT ( 'NONE', #123 ) ;
#163 = APPLICATION_CONTEXT ( 'configuration controlled 3d designs of mechanical parts and assemblies' ) ;
#164 = AXIS2_PLACEMENT_3D ( 'NONE', #171, #166, #191 ) ;
#165 = VERTEX_POINT ( 'NONE', #47 ) ;
#166 = DIRECTION ( 'NONE',  ( 0.000000000000000000, 0.000000000000000000, 1.000000000000000000 ) ) ;
#167 = LINE ( 'NONE', #290, #209 ) ;
#168 = CLOSED_SHELL ( 'NONE', ( #304, #146, #222, #72, #187, #77, #54, #226, #121 ) ) ;
#169 = LINE ( 'NONE', #139, #137 ) ;
#170 = DIRECTION ( 'NONE',  ( -0.000000000000000000, -0.000000000000000000, -1.000000000000000000 ) ) ;
#171 = CARTESIAN_POINT ( 'NONE',  ( 0.000000000000000000, 0.000000000000000000, 5.199999999999982414 ) ) ;
#172 =( NAMED_UNIT ( * ) SI_UNIT ( $, .STERADIAN. ) SOLID_ANGLE_UNIT ( ) );
#173 = EDGE_CURVE ( 'NONE', #33, #64, #100, .T. ) ;
#174 = APPROVAL_DATE_TIME ( #75, #49 ) ;
#175 = CARTESIAN_POINT ( 'NONE',  ( 6.000000000000000888, 7.347880794884120722E-16, 0.000000000000000000 ) ) ;
#176 = AXIS2_PLACEMENT_3D ( 'NONE', #22, #45, #141 ) ;
#177 = LOCAL_TIME ( 12, 6, 56.00000000000000000, #7 ) ;
#178 = DIRECTION ( 'NONE',  ( 0.000000000000000000, 0.000000000000000000, 1.000000000000000000 ) ) ;
#179 = LOCAL_TIME ( 12, 6, 56.00000000000000000, #157 ) ;
#180 = DATE_AND_TIME ( #116, #179 ) ;
#181 = ORIENTED_EDGE ( 'NONE', *, *, #302, .T. ) ;
#182 = CARTESIAN_POINT ( 'NONE',  ( 0.000000000000000000, 0.000000000000000000, 320.0000000000000000 ) ) ;
#183 = ORIENTED_EDGE ( 'NONE', *, *, #46, .F. ) ;
#184 = COORDINATED_UNIVERSAL_TIME_OFFSET ( 1, 0, .AHEAD. ) ;
#185 = ORIENTED_EDGE ( 'NONE', *, *, #173, .F. ) ;
#186 = ORIENTED_EDGE ( 'NONE', *, *, #302, .F. ) ;
#187 = ADVANCED_FACE ( 'NONE', ( #188, #48 ), #287, .T. ) ;
#188 = FACE_BOUND ( 'NONE', #35, .T. ) ;
#189 = CARTESIAN_POINT ( 'NONE',  ( 0.000000000000000000, 0.000000000000000000, 0.000000000000000000 ) ) ;
#190 = APPROVAL ( #10, 'NEURÈENÝ' ) ;
#191 = DIRECTION ( 'NONE',  ( 1.000000000000000000, 0.000000000000000000, 0.000000000000000000 ) ) ;
#192 = DIRECTION ( 'NONE',  ( 0.000000000000000000, 0.000000000000000000, 1.000000000000000000 ) ) ;
#193 = CIRCLE ( 'NONE', #20, 6.000000000000000888 ) ;
#194 = ADVANCED_BREP_SHAPE_REPRESENTATION ( '076e', ( #214, #232 ), #38 ) ;
#195 = DIRECTION ( 'NONE',  ( -1.000000000000000000, 0.000000000000000000, 0.000000000000000000 ) ) ;
#196 = DIRECTION ( 'NONE',  ( 0.000000000000000000, 0.000000000000000000, 1.000000000000000000 ) ) ;
#197 = CC_DESIGN_DATE_AND_TIME_ASSIGNMENT ( #204, #160, ( #18 ) ) ;
#198 = CALENDAR_DATE ( 2022, 7, 7 ) ;
#199 = CIRCLE ( 'NONE', #142, 3.500000000000000000 ) ;
#200 = LINE ( 'NONE', #102, #154 ) ;
#201 = DIRECTION ( 'NONE',  ( 1.000000000000000000, 0.000000000000000000, 0.000000000000000000 ) ) ;
#202 = EDGE_CURVE ( 'NONE', #128, #272, #169, .T. ) ;
#203 = PERSON_AND_ORGANIZATION_ROLE ( 'design_owner' ) ;
#204 = DATE_AND_TIME ( #104, #65 ) ;
#205 = EDGE_LOOP ( 'NONE', ( #60, #39 ) ) ;
#206 = PERSON_AND_ORGANIZATION ( #132, #11 ) ;
#207 = ORIENTED_EDGE ( 'NONE', *, *, #265, .F. ) ;
#208 = EDGE_LOOP ( 'NONE', ( #186, #61, #256, #305 ) ) ;
#209 = VECTOR ( 'NONE', #238, 1000.000000000000000 ) ;
#210 = ORIENTED_EDGE ( 'NONE', *, *, #228, .F. ) ;
#211 = DIRECTION ( 'NONE',  ( -1.000000000000000000, 1.224646799147350742E-16, 0.000000000000000000 ) ) ;
#212 = DIRECTION ( 'NONE',  ( 0.000000000000000000, 0.000000000000000000, 1.000000000000000000 ) ) ;
#213 = CIRCLE ( 'NONE', #98, 0.2000000000000000944 ) ;
#214 = MANIFOLD_SOLID_BREP ( 'Zaoblit1', #168 ) ;
#215 = DIRECTION ( 'NONE',  ( -0.000000000000000000, -0.000000000000000000, -1.000000000000000000 ) ) ;
#216 = AXIS2_PLACEMENT_3D ( 'NONE', #122, #92, #1 ) ;
#217 = CARTESIAN_POINT ( 'NONE',  ( -3.500000000000000000, 0.000000000000000000, 5.199999999999982414 ) ) ;
#218 = CARTESIAN_POINT ( 'NONE',  ( 0.000000000000000000, 0.000000000000000000, 5.000000000000000000 ) ) ;
#219 = AXIS2_PLACEMENT_3D ( 'NONE', #182, #280, #264 ) ;
#220 = FACE_OUTER_BOUND ( 'NONE', #136, .T. ) ;
#221 = APPROVAL_ROLE ( '' ) ;
#222 = ADVANCED_FACE ( 'NONE', ( #220 ), #143, .T. ) ;
#223 = APPROVAL_STATUS ( 'not_yet_approved' ) ;
#224 = CIRCLE ( 'NONE', #87, 6.000000000000000888 ) ;
#225 = APPLICATION_PROTOCOL_DEFINITION ( 'international standard', 'config_control_design', 1994, #163 ) ;
#226 = ADVANCED_FACE ( 'NONE', ( #147 ), #17, .T. ) ;
#227 = DATE_AND_TIME ( #57, #51 ) ;
#228 = EDGE_CURVE ( 'NONE', #165, #64, #267, .T. ) ;
#229 = DIRECTION ( 'NONE',  ( 0.000000000000000000, 0.000000000000000000, 1.000000000000000000 ) ) ;
#230 = VERTEX_POINT ( 'NONE', #95 ) ;
#231 = ORIENTED_EDGE ( 'NONE', *, *, #202, .T. ) ;
#232 = AXIS2_PLACEMENT_3D ( 'NONE', #76, #242, #105 ) ;
#233 = CARTESIAN_POINT ( 'NONE',  ( -3.700000000000000178, 4.531193156845206201E-16, 5.199999999999982414 ) ) ;
#234 = VERTEX_POINT ( 'NONE', #217 ) ;
#235 = FACE_OUTER_BOUND ( 'NONE', #303, .T. ) ;
#236 = DIRECTION ( 'NONE',  ( -1.000000000000000000, 0.000000000000000000, 0.000000000000000000 ) ) ;
#237 = TOROIDAL_SURFACE ( 'NONE', #55, 3.700000000000000178, 0.2000000000000000111 ) ;
#238 = DIRECTION ( 'NONE',  ( -0.000000000000000000, -0.000000000000000000, -1.000000000000000000 ) ) ;
#239 = FACE_OUTER_BOUND ( 'NONE', #32, .T. ) ;
#240 = CARTESIAN_POINT ( 'NONE',  ( 0.000000000000000000, 0.000000000000000000, 320.0000000000000000 ) ) ;
#241 = PRODUCT_DEFINITION_FORMATION_WITH_SPECIFIED_SOURCE ( 'LIBOVOLNÝ', '', #279, .NOT_KNOWN. ) ;
#242 = DIRECTION ( 'NONE',  ( 0.000000000000000000, 0.000000000000000000, 1.000000000000000000 ) ) ;
#243 = DIRECTION ( 'NONE',  ( -0.000000000000000000, -0.000000000000000000, -1.000000000000000000 ) ) ;
#244 = CC_DESIGN_PERSON_AND_ORGANIZATION_ASSIGNMENT ( #88, #82, ( #241 ) ) ;
#245 = EDGE_CURVE ( 'NONE', #33, #234, #115, .T. ) ;
#246 = AXIS2_PLACEMENT_3D ( 'NONE', #4, #215, #195 ) ;
#247 = LINE ( 'NONE', #50, #74 ) ;
#248 = EDGE_CURVE ( 'NONE', #285, #230, #200, .T. ) ;
#249 = ORIENTED_EDGE ( 'NONE', *, *, #228, .T. ) ;
#250 = CIRCLE ( 'NONE', #93, 3.500000000000000000 ) ;
#251 = DATE_TIME_ROLE ( 'classification_date' ) ;
#252 = ORIENTED_EDGE ( 'NONE', *, *, #8, .F. ) ;
#253 = SHAPE_DEFINITION_REPRESENTATION ( #43, #194 ) ;
#254 = CARTESIAN_POINT ( 'NONE',  ( 0.000000000000000000, 0.000000000000000000, 0.000000000000000000 ) ) ;
#255 = EDGE_CURVE ( 'NONE', #135, #33, #247, .T. ) ;
#256 = ORIENTED_EDGE ( 'NONE', *, *, #245, .T. ) ;
#257 = TOROIDAL_SURFACE ( 'NONE', #164, 3.700000000000000178, 0.2000000000000000111 ) ;
#258 = CARTESIAN_POINT ( 'NONE',  ( 0.000000000000000000, 0.000000000000000000, 0.000000000000000000 ) ) ;
#259 = DIRECTION ( 'NONE',  ( 0.000000000000000000, 0.000000000000000000, -1.000000000000000000 ) ) ;
#260 = CARTESIAN_POINT ( 'NONE',  ( 3.700000000000000178, 0.000000000000000000, 5.199999999999982414 ) ) ;
#261 = PRODUCT_RELATED_PRODUCT_CATEGORY ( 'detail', '', ( #279 ) ) ;
#262 = FACE_OUTER_BOUND ( 'NONE', #113, .T. ) ;
#263 = AXIS2_PLACEMENT_3D ( 'NONE', #266, #40, #69 ) ;
#264 = DIRECTION ( 'NONE',  ( -1.000000000000000000, 0.000000000000000000, 0.000000000000000000 ) ) ;
#265 = EDGE_CURVE ( 'NONE', #128, #285, #148, .T. ) ;
#266 = CARTESIAN_POINT ( 'NONE',  ( 0.000000000000000000, 0.000000000000000000, 5.000000000000000000 ) ) ;
#267 = CIRCLE ( 'NONE', #216, 3.700000000000000178 ) ;
#268 = CC_DESIGN_APPROVAL ( #140, ( #241 ) ) ;
#269 = PERSON_AND_ORGANIZATION ( #132, #11 ) ;
#270 = EDGE_CURVE ( 'NONE', #162, #135, #250, .T. ) ;
#271 = AXIS2_PLACEMENT_3D ( 'NONE', #189, #192, #21 ) ;
#272 = VERTEX_POINT ( 'NONE', #175 ) ;
#273 = DESIGN_CONTEXT ( 'detailed design', #163, 'design' ) ;
#274 = APPROVAL_PERSON_ORGANIZATION ( #112, #190, #300 ) ;
#275 = MECHANICAL_CONTEXT ( 'NONE', #125, 'mechanical' ) ;
#276 = PERSON_AND_ORGANIZATION_ROLE ( 'design_supplier' ) ;
#277 = ORIENTED_EDGE ( 'NONE', *, *, #255, .F. ) ;
#278 = APPROVAL_STATUS ( 'not_yet_approved' ) ;
#279 = PRODUCT ( '076e', '076e', '', ( #275 ) ) ;
#280 = DIRECTION ( 'NONE',  ( -0.000000000000000000, -0.000000000000000000, -1.000000000000000000 ) ) ;
#281 = CC_DESIGN_APPROVAL ( #190, ( #124 ) ) ;
#282 = EDGE_LOOP ( 'NONE', ( #277, #63, #89, #83 ) ) ;
#283 = APPROVAL_DATE_TIME ( #227, #140 ) ;
#284 = EDGE_CURVE ( 'NONE', #285, #128, #193, .T. ) ;
#285 = VERTEX_POINT ( 'NONE', #56 ) ;
#286 = CARTESIAN_POINT ( 'NONE',  ( 3.500000000000000000, 4.286263797015736595E-16, 5.199999999999982414 ) ) ;
#287 = PLANE ( 'NONE',  #263 ) ;
#288 = CC_DESIGN_DATE_AND_TIME_ASSIGNMENT ( #180, #251, ( #124 ) ) ;
#289 = CARTESIAN_POINT ( 'NONE',  ( 0.000000000000000000, 0.000000000000000000, 320.0000000000000000 ) ) ;
#290 = CARTESIAN_POINT ( 'NONE',  ( -3.500000000000000000, 0.000000000000000000, 320.0000000000000000 ) ) ;
#291 = CARTESIAN_POINT ( 'NONE',  ( 6.000000000000000888, 7.347880794884120722E-16, 5.000000000000000000 ) ) ;
#292 = AXIS2_PLACEMENT_3D ( 'NONE', #2, #97, #150 ) ;
#293 = CARTESIAN_POINT ( 'NONE',  ( 3.700000000000000178, 0.000000000000000000, 4.999999999999991118 ) ) ;
#294 = FACE_OUTER_BOUND ( 'NONE', #37, .T. ) ;
#295 = CARTESIAN_POINT ( 'NONE',  ( 0.000000000000000000, 0.000000000000000000, 320.0000000000000000 ) ) ;
#296 =( LENGTH_UNIT ( ) NAMED_UNIT ( * ) SI_UNIT ( .MILLI., .METRE. ) );
#297 = CC_DESIGN_APPROVAL ( #49, ( #18 ) ) ;
#298 = PERSON_AND_ORGANIZATION_ROLE ( 'classification_officer' ) ;
#299 = ORIENTED_EDGE ( 'NONE', *, *, #245, .F. ) ;
#300 = APPROVAL_ROLE ( '' ) ;
#301 = FACE_OUTER_BOUND ( 'NONE', #282, .T. ) ;
#302 = EDGE_CURVE ( 'NONE', #135, #162, #199, .T. ) ;
#303 = EDGE_LOOP ( 'NONE', ( #13, #183 ) ) ;
#304 = ADVANCED_FACE ( 'NONE', ( #294 ), #237, .F. ) ;
#305 = ORIENTED_EDGE ( 'NONE', *, *, #144, .F. ) ;
#306 = DIRECTION ( 'NONE',  ( 0.000000000000000000, 0.000000000000000000, 1.000000000000000000 ) ) ;
#307 = DIRECTION ( 'NONE',  ( 1.000000000000000000, 0.000000000000000000, -0.000000000000000000 ) ) ;
ENDSEC;
END-ISO-10303-21;
