ISO-10303-21;
HEADER;
FILE_DESCRIPTION (( 'STEP AP203' ),
    '1' );
FILE_NAME ('e609.STEP',
    '2022-07-07T09:49:42',
    ( '' ),
    ( '' ),
    'SwSTEP 2.0',
    'SolidWorks 2019',
    '' );
FILE_SCHEMA (( 'CONFIG_CONTROL_DESIGN' ));
ENDSEC;

DATA;
#1 = EDGE_CURVE ( 'NONE', #76, #44, #295, .T. ) ;
#2 = CC_DESIGN_PERSON_AND_ORGANIZATION_ASSIGNMENT ( #160, #70, ( #5 ) ) ;
#3 = DIRECTION ( 'NONE',  ( 1.000000000000000000, 0.000000000000000000, 0.000000000000000000 ) ) ;
#4 = DIRECTION ( 'NONE',  ( -1.000000000000000000, 1.224646799147353454E-16, 0.000000000000000000 ) ) ;
#5 = PRODUCT_DEFINITION_FORMATION_WITH_SPECIFIED_SOURCE ( 'LIBOVOLNÝ', '', #138, .NOT_KNOWN. ) ;
#6 = EDGE_CURVE ( 'NONE', #260, #291, #241, .T. ) ;
#7 = DIRECTION ( 'NONE',  ( 0.000000000000000000, 0.000000000000000000, -1.000000000000000000 ) ) ;
#8 = DIRECTION ( 'NONE',  ( -1.000000000000000000, 0.000000000000000000, 0.000000000000000000 ) ) ;
#9 = DIRECTION ( 'NONE',  ( 0.000000000000000000, -1.000000000000000000, 0.000000000000000000 ) ) ;
#10 = DIRECTION ( 'NONE',  ( 0.000000000000000000, 0.000000000000000000, 1.000000000000000000 ) ) ;
#11 = AXIS2_PLACEMENT_3D ( 'NONE', #193, #144, #28 ) ;
#12 = SECURITY_CLASSIFICATION ( '', '', #287 ) ;
#13 = LINE ( 'NONE', #105, #223 ) ;
#14 = DESIGN_CONTEXT ( 'detailed design', #294, 'design' ) ;
#15 = DIRECTION ( 'NONE',  ( 1.000000000000000000, 0.000000000000000000, 0.000000000000000000 ) ) ;
#16 =( NAMED_UNIT ( * ) SI_UNIT ( $, .STERADIAN. ) SOLID_ANGLE_UNIT ( ) );
#17 = ORIENTED_EDGE ( 'NONE', *, *, #209, .T. ) ;
#18 = EDGE_CURVE ( 'NONE', #291, #260, #217, .T. ) ;
#19 = ORIENTED_EDGE ( 'NONE', *, *, #259, .F. ) ;
#20 = AXIS2_PLACEMENT_3D ( 'NONE', #279, #277, #42 ) ;
#21 = AXIS2_PLACEMENT_3D ( 'NONE', #58, #62, #131 ) ;
#22 = VERTEX_POINT ( 'NONE', #298 ) ;
#23 = APPROVAL_DATE_TIME ( #282, #61 ) ;
#24 = ADVANCED_FACE ( 'NONE', ( #173 ), #208, .F. ) ;
#25 = AXIS2_PLACEMENT_3D ( 'NONE', #149, #35, #229 ) ;
#26 = APPROVAL ( #185, 'NEURÈENÝ' ) ;
#27 = FACE_OUTER_BOUND ( 'NONE', #47, .T. ) ;
#28 = DIRECTION ( 'NONE',  ( -1.000000000000000000, 0.000000000000000000, 0.000000000000000000 ) ) ;
#29 = ADVANCED_FACE ( 'NONE', ( #106 ), #152, .F. ) ;
#30 = LOCAL_TIME ( 11, 49, 42.00000000000000000, #205 ) ;
#31 = PERSON_AND_ORGANIZATION ( #197, #246 ) ;
#32 = CARTESIAN_POINT ( 'NONE',  ( 5.699999999999999289, 0.000000000000000000, 5.199999999999996625 ) ) ;
#33 = CARTESIAN_POINT ( 'NONE',  ( -8.000000000000000000, 0.000000000000000000, 5.000000000000000000 ) ) ;
#34 = PERSON_AND_ORGANIZATION ( #197, #246 ) ;
#35 = DIRECTION ( 'NONE',  ( 0.000000000000000000, 0.000000000000000000, 1.000000000000000000 ) ) ;
#36 = CYLINDRICAL_SURFACE ( 'NONE', #218, 5.500000000000000000 ) ;
#37 = DIRECTION ( 'NONE',  ( 0.000000000000000000, 0.000000000000000000, 1.000000000000000000 ) ) ;
#38 = CLOSED_SHELL ( 'NONE', ( #24, #206, #168, #227, #161, #29, #224, #190, #51 ) ) ;
#39 = ORIENTED_EDGE ( 'NONE', *, *, #269, .T. ) ;
#40 = CIRCLE ( 'NONE', #78, 5.699999999999999289 ) ;
#41 = CC_DESIGN_APPROVAL ( #271, ( #119 ) ) ;
#42 = DIRECTION ( 'NONE',  ( 1.000000000000000000, 0.000000000000000000, 0.000000000000000000 ) ) ;
#43 = DATE_AND_TIME ( #214, #110 ) ;
#44 = VERTEX_POINT ( 'NONE', #296 ) ;
#45 = CALENDAR_DATE ( 2022, 7, 7 ) ;
#46 = CC_DESIGN_PERSON_AND_ORGANIZATION_ASSIGNMENT ( #81, #66, ( #138 ) ) ;
#47 = EDGE_LOOP ( 'NONE', ( #164, #234 ) ) ;
#48 = VERTEX_POINT ( 'NONE', #178 ) ;
#49 = APPROVAL_PERSON_ORGANIZATION ( #31, #61, #240 ) ;
#50 = SHAPE_DEFINITION_REPRESENTATION ( #68, #235 ) ;
#51 = ADVANCED_FACE ( 'NONE', ( #270 ), #156, .F. ) ;
#52 = DIRECTION ( 'NONE',  ( 0.000000000000000000, 0.000000000000000000, 1.000000000000000000 ) ) ;
#53 = CIRCLE ( 'NONE', #170, 0.1999999999999996503 ) ;
#54 = CARTESIAN_POINT ( 'NONE',  ( 0.000000000000000000, 0.000000000000000000, 5.000000000000000000 ) ) ;
#55 = APPLICATION_CONTEXT ( 'configuration controlled 3d designs of mechanical parts and assemblies' ) ;
#56 = DIRECTION ( 'NONE',  ( 0.000000000000000000, 0.000000000000000000, 1.000000000000000000 ) ) ;
#57 = CIRCLE ( 'NONE', #97, 8.000000000000000000 ) ;
#58 = CARTESIAN_POINT ( 'NONE',  ( 0.000000000000000000, 0.000000000000000000, 5.000000000000000000 ) ) ;
#59 =( NAMED_UNIT ( * ) PLANE_ANGLE_UNIT ( ) SI_UNIT ( $, .RADIAN. ) );
#60 = CARTESIAN_POINT ( 'NONE',  ( 0.000000000000000000, 0.000000000000000000, 5.000000000000000000 ) ) ;
#61 = APPROVAL ( #72, 'NEURÈENÝ' ) ;
#62 = DIRECTION ( 'NONE',  ( -0.000000000000000000, -0.000000000000000000, -1.000000000000000000 ) ) ;
#63 = EDGE_LOOP ( 'NONE', ( #135, #186, #305, #179 ) ) ;
#64 = AXIS2_PLACEMENT_3D ( 'NONE', #225, #201, #86 ) ;
#65 = ORIENTED_EDGE ( 'NONE', *, *, #284, .T. ) ;
#66 = PERSON_AND_ORGANIZATION_ROLE ( 'design_owner' ) ;
#67 = COORDINATED_UNIVERSAL_TIME_OFFSET ( 1, 0, .AHEAD. ) ;
#68 = PRODUCT_DEFINITION_SHAPE ( 'NONE', 'NONE',  #119 ) ;
#69 = ORIENTED_EDGE ( 'NONE', *, *, #284, .F. ) ;
#70 = PERSON_AND_ORGANIZATION_ROLE ( 'design_supplier' ) ;
#71 = ORIENTED_EDGE ( 'NONE', *, *, #18, .F. ) ;
#72 = APPROVAL_STATUS ( 'not_yet_approved' ) ;
#73 = AXIS2_PLACEMENT_3D ( 'NONE', #230, #10, #111 ) ;
#74 = CIRCLE ( 'NONE', #93, 8.000000000000000000 ) ;
#75 = ORIENTED_EDGE ( 'NONE', *, *, #263, .F. ) ;
#76 = VERTEX_POINT ( 'NONE', #252 ) ;
#77 = CARTESIAN_POINT ( 'NONE',  ( -5.699999999999999289, 6.980486755139912122E-16, 5.199999999999996625 ) ) ;
#78 = AXIS2_PLACEMENT_3D ( 'NONE', #200, #80, #297 ) ;
#79 = DIRECTION ( 'NONE',  ( 1.224646799147353207E-16, 1.000000000000000000, -0.000000000000000000 ) ) ;
#80 = DIRECTION ( 'NONE',  ( -0.000000000000000000, -0.000000000000000000, -1.000000000000000000 ) ) ;
#81 = PERSON_AND_ORGANIZATION ( #197, #246 ) ;
#82 = CARTESIAN_POINT ( 'NONE',  ( -8.000000000000000000, 0.000000000000000000, 0.000000000000000000 ) ) ;
#83 = CC_DESIGN_PERSON_AND_ORGANIZATION_ASSIGNMENT ( #136, #216, ( #12 ) ) ;
#84 = DIRECTION ( 'NONE',  ( -0.000000000000000000, -0.000000000000000000, -1.000000000000000000 ) ) ;
#85 = LINE ( 'NONE', #256, #238 ) ;
#86 = DIRECTION ( 'NONE',  ( 1.000000000000000000, 0.000000000000000000, -0.000000000000000000 ) ) ;
#87 = ORIENTED_EDGE ( 'NONE', *, *, #194, .F. ) ;
#88 = DIRECTION ( 'NONE',  ( 1.000000000000000000, 0.000000000000000000, 0.000000000000000000 ) ) ;
#89 = DIRECTION ( 'NONE',  ( 1.000000000000000000, 0.000000000000000000, 0.000000000000000000 ) ) ;
#90 = UNCERTAINTY_MEASURE_WITH_UNIT (LENGTH_MEASURE( 1.000000000000000082E-05 ), #182, 'distance_accuracy_value', 'NONE');
#91 = DIRECTION ( 'NONE',  ( 0.000000000000000000, 0.000000000000000000, 1.000000000000000000 ) ) ;
#92 = CARTESIAN_POINT ( 'NONE',  ( 0.000000000000000000, 0.000000000000000000, 5.199999999999996625 ) ) ;
#93 = AXIS2_PLACEMENT_3D ( 'NONE', #202, #150, #88 ) ;
#94 = ORIENTED_EDGE ( 'NONE', *, *, #263, .T. ) ;
#95 = EDGE_LOOP ( 'NONE', ( #184, #116 ) ) ;
#96 = VECTOR ( 'NONE', #268, 1000.000000000000000 ) ;
#97 = AXIS2_PLACEMENT_3D ( 'NONE', #301, #56, #89 ) ;
#98 = EDGE_CURVE ( 'NONE', #306, #118, #199, .T. ) ;
#99 = CC_DESIGN_PERSON_AND_ORGANIZATION_ASSIGNMENT ( #113, #251, ( #119 ) ) ;
#100 = APPROVAL_PERSON_ORGANIZATION ( #34, #271, #274 ) ;
#101 = EDGE_LOOP ( 'NONE', ( #71, #39, #94, #19 ) ) ;
#102 = CARTESIAN_POINT ( 'NONE',  ( -5.500000000000000000, 0.000000000000000000, 105.0000000000000142 ) ) ;
#103 = AXIS2_PLACEMENT_3D ( 'NONE', #112, #181, #255 ) ;
#104 = CARTESIAN_POINT ( 'NONE',  ( 0.000000000000000000, 0.000000000000000000, 5.199999999999996625 ) ) ;
#105 = CARTESIAN_POINT ( 'NONE',  ( 8.000000000000000000, 9.797174393178825657E-16, 5.000000000000000000 ) ) ;
#106 = FACE_OUTER_BOUND ( 'NONE', #285, .T. ) ;
#107 = CARTESIAN_POINT ( 'NONE',  ( 0.000000000000000000, 0.000000000000000000, 105.0000000000000142 ) ) ;
#108 = DIRECTION ( 'NONE',  ( 0.000000000000000000, 0.000000000000000000, 1.000000000000000000 ) ) ;
#109 = AXIS2_PLACEMENT_3D ( 'NONE', #60, #195, #222 ) ;
#110 = LOCAL_TIME ( 11, 49, 42.00000000000000000, #262 ) ;
#111 = DIRECTION ( 'NONE',  ( 1.000000000000000000, 0.000000000000000000, 0.000000000000000000 ) ) ;
#112 = CARTESIAN_POINT ( 'NONE',  ( 0.000000000000000000, 0.000000000000000000, 5.000000000000000000 ) ) ;
#113 = PERSON_AND_ORGANIZATION ( #197, #246 ) ;
#114 = VERTEX_POINT ( 'NONE', #82 ) ;
#115 = CALENDAR_DATE ( 2022, 7, 7 ) ;
#116 = ORIENTED_EDGE ( 'NONE', *, *, #245, .T. ) ;
#117 = CALENDAR_DATE ( 2022, 7, 7 ) ;
#118 = VERTEX_POINT ( 'NONE', #175 ) ;
#119 = PRODUCT_DEFINITION ( 'NEZNÁMÝ', '', #5, #14 ) ;
#120 = DATE_TIME_ROLE ( 'classification_date' ) ;
#121 = AXIS2_PLACEMENT_3D ( 'NONE', #248, #108, #129 ) ;
#122 = AXIS2_PLACEMENT_3D ( 'NONE', #54, #52, #244 ) ;
#123 = LOCAL_TIME ( 11, 49, 42.00000000000000000, #151 ) ;
#124 = PLANE ( 'NONE',  #188 ) ;
#125 = DIRECTION ( 'NONE',  ( 0.000000000000000000, 0.000000000000000000, 1.000000000000000000 ) ) ;
#126 = AXIS2_PLACEMENT_3D ( 'NONE', #155, #91, #15 ) ;
#127 = CC_DESIGN_APPROVAL ( #26, ( #12 ) ) ;
#128 = DIRECTION ( 'NONE',  ( -0.000000000000000000, -0.000000000000000000, -1.000000000000000000 ) ) ;
#129 = DIRECTION ( 'NONE',  ( 1.000000000000000000, 0.000000000000000000, 0.000000000000000000 ) ) ;
#130 = DIRECTION ( 'NONE',  ( -0.000000000000000000, -0.000000000000000000, -1.000000000000000000 ) ) ;
#131 = DIRECTION ( 'NONE',  ( -1.000000000000000000, 0.000000000000000000, 0.000000000000000000 ) ) ;
#132 = DIRECTION ( 'NONE',  ( 1.000000000000000000, 0.000000000000000000, 0.000000000000000000 ) ) ;
#133 = MANIFOLD_SOLID_BREP ( 'Zaoblit1', #38 ) ;
#134 = ORIENTED_EDGE ( 'NONE', *, *, #146, .F. ) ;
#135 = ORIENTED_EDGE ( 'NONE', *, *, #269, .F. ) ;
#136 = PERSON_AND_ORGANIZATION ( #197, #246 ) ;
#137 = VERTEX_POINT ( 'NONE', #275 ) ;
#138 = PRODUCT ( 'e609', 'e609', '', ( #180 ) ) ;
#139 = APPROVAL_PERSON_ORGANIZATION ( #187, #26, #307 ) ;
#140 = CC_DESIGN_PERSON_AND_ORGANIZATION_ASSIGNMENT ( #142, #166, ( #5 ) ) ;
#141 = ORIENTED_EDGE ( 'NONE', *, *, #245, .F. ) ;
#142 = PERSON_AND_ORGANIZATION ( #197, #246 ) ;
#143 = AXIS2_PLACEMENT_3D ( 'NONE', #32, #9, #7 ) ;
#144 = DIRECTION ( 'NONE',  ( -0.000000000000000000, -0.000000000000000000, -1.000000000000000000 ) ) ;
#145 = PLANE ( 'NONE',  #122 ) ;
#146 = EDGE_CURVE ( 'NONE', #118, #137, #288, .T. ) ;
#147 = APPROVAL_DATE_TIME ( #177, #271 ) ;
#148 =( GEOMETRIC_REPRESENTATION_CONTEXT ( 3 ) GLOBAL_UNCERTAINTY_ASSIGNED_CONTEXT ( ( #90 ) ) GLOBAL_UNIT_ASSIGNED_CONTEXT ( ( #182, #59, #16 ) ) REPRESENTATION_CONTEXT ( 'NONE', 'WORKASPACE' ) );
#149 = CARTESIAN_POINT ( 'NONE',  ( 0.000000000000000000, 0.000000000000000000, 5.199999999999996625 ) ) ;
#150 = DIRECTION ( 'NONE',  ( 0.000000000000000000, 0.000000000000000000, 1.000000000000000000 ) ) ;
#151 = COORDINATED_UNIVERSAL_TIME_OFFSET ( 1, 0, .AHEAD. ) ;
#152 = PLANE ( 'NONE',  #64 ) ;
#153 = FACE_OUTER_BOUND ( 'NONE', #302, .T. ) ;
#154 = DATE_AND_TIME ( #303, #30 ) ;
#155 = CARTESIAN_POINT ( 'NONE',  ( 0.000000000000000000, 0.000000000000000000, 105.0000000000000142 ) ) ;
#156 = TOROIDAL_SURFACE ( 'NONE', #25, 5.699999999999999289, 0.2000000000000000111 ) ;
#157 = CARTESIAN_POINT ( 'NONE',  ( -8.000000000000000000, 0.000000000000000000, 5.000000000000000000 ) ) ;
#158 = DIRECTION ( 'NONE',  ( 0.000000000000000000, 0.000000000000000000, 1.000000000000000000 ) ) ;
#159 = APPLICATION_PROTOCOL_DEFINITION ( 'international standard', 'config_control_design', 1994, #294 ) ;
#160 = PERSON_AND_ORGANIZATION ( #197, #246 ) ;
#161 = ADVANCED_FACE ( 'NONE', ( #169, #27 ), #145, .T. ) ;
#162 = ORIENTED_EDGE ( 'NONE', *, *, #172, .F. ) ;
#163 = PRODUCT_RELATED_PRODUCT_CATEGORY ( 'detail', '', ( #138 ) ) ;
#164 = ORIENTED_EDGE ( 'NONE', *, *, #6, .T. ) ;
#165 = APPROVAL_DATE_TIME ( #237, #26 ) ;
#166 = PERSON_AND_ORGANIZATION_ROLE ( 'creator' ) ;
#167 = CIRCLE ( 'NONE', #289, 5.500000000000000000 ) ;
#168 = ADVANCED_FACE ( 'NONE', ( #267 ), #265, .T. ) ;
#169 = FACE_BOUND ( 'NONE', #215, .T. ) ;
#170 = AXIS2_PLACEMENT_3D ( 'NONE', #77, #79, #4 ) ;
#171 = LINE ( 'NONE', #102, #96 ) ;
#172 = EDGE_CURVE ( 'NONE', #76, #22, #171, .T. ) ;
#173 = FACE_OUTER_BOUND ( 'NONE', #236, .T. ) ;
#174 = CARTESIAN_POINT ( 'NONE',  ( 0.000000000000000000, 0.000000000000000000, 105.0000000000000142 ) ) ;
#175 = CARTESIAN_POINT ( 'NONE',  ( 5.699999999999999289, 0.000000000000000000, 4.999999999999998224 ) ) ;
#176 = DIRECTION ( 'NONE',  ( -0.000000000000000000, -0.000000000000000000, -1.000000000000000000 ) ) ;
#177 = DATE_AND_TIME ( #45, #123 ) ;
#178 = CARTESIAN_POINT ( 'NONE',  ( 8.000000000000000000, 9.797174393178825657E-16, 0.000000000000000000 ) ) ;
#179 = ORIENTED_EDGE ( 'NONE', *, *, #249, .T. ) ;
#180 = MECHANICAL_CONTEXT ( 'NONE', #55, 'mechanical' ) ;
#181 = DIRECTION ( 'NONE',  ( 0.000000000000000000, 0.000000000000000000, 1.000000000000000000 ) ) ;
#182 =( LENGTH_UNIT ( ) NAMED_UNIT ( * ) SI_UNIT ( .MILLI., .METRE. ) );
#183 = COORDINATED_UNIVERSAL_TIME_OFFSET ( 1, 0, .AHEAD. ) ;
#184 = ORIENTED_EDGE ( 'NONE', *, *, #1, .T. ) ;
#185 = APPROVAL_STATUS ( 'not_yet_approved' ) ;
#186 = ORIENTED_EDGE ( 'NONE', *, *, #6, .F. ) ;
#187 = PERSON_AND_ORGANIZATION ( #197, #246 ) ;
#188 = AXIS2_PLACEMENT_3D ( 'NONE', #292, #125, #293 ) ;
#189 = CC_DESIGN_SECURITY_CLASSIFICATION ( #12, ( #5 ) ) ;
#190 = ADVANCED_FACE ( 'NONE', ( #243 ), #124, .T. ) ;
#191 = CC_DESIGN_APPROVAL ( #61, ( #5 ) ) ;
#192 = ORIENTED_EDGE ( 'NONE', *, *, #249, .F. ) ;
#193 = CARTESIAN_POINT ( 'NONE',  ( 0.000000000000000000, 0.000000000000000000, 5.000000000000000000 ) ) ;
#194 = EDGE_CURVE ( 'NONE', #22, #137, #53, .T. ) ;
#195 = DIRECTION ( 'NONE',  ( -0.000000000000000000, -0.000000000000000000, -1.000000000000000000 ) ) ;
#196 = EDGE_CURVE ( 'NONE', #306, #22, #231, .T. ) ;
#197 = PERSON ( 'NEURÈENÝ', 'NEURÈENÝ', 'NEURÈENÝ', ('NEURÈENÝ'), ('NEURÈENÝ'), ('NEURÈENÝ') ) ;
#198 = DIRECTION ( 'NONE',  ( 1.000000000000000000, 0.000000000000000000, 0.000000000000000000 ) ) ;
#199 = CIRCLE ( 'NONE', #143, 0.1999999999999996503 ) ;
#200 = CARTESIAN_POINT ( 'NONE',  ( 0.000000000000000000, 0.000000000000000000, 5.000000000000000000 ) ) ;
#201 = DIRECTION ( 'NONE',  ( 0.000000000000000000, 0.000000000000000000, 1.000000000000000000 ) ) ;
#202 = CARTESIAN_POINT ( 'NONE',  ( 0.000000000000000000, 0.000000000000000000, 0.000000000000000000 ) ) ;
#203 = CARTESIAN_POINT ( 'NONE',  ( 5.500000000000000000, 6.735557395310442023E-16, 5.199999999999996625 ) ) ;
#204 = ORIENTED_EDGE ( 'NONE', *, *, #286, .F. ) ;
#205 = COORDINATED_UNIVERSAL_TIME_OFFSET ( 1, 0, .AHEAD. ) ;
#206 = ADVANCED_FACE ( 'NONE', ( #272 ), #36, .T. ) ;
#207 = ORIENTED_EDGE ( 'NONE', *, *, #196, .T. ) ;
#208 = TOROIDAL_SURFACE ( 'NONE', #121, 5.699999999999999289, 0.2000000000000000111 ) ;
#209 = EDGE_CURVE ( 'NONE', #137, #118, #40, .T. ) ;
#210 = ORIENTED_EDGE ( 'NONE', *, *, #146, .T. ) ;
#211 = LOCAL_TIME ( 11, 49, 42.00000000000000000, #183 ) ;
#212 = AXIS2_PLACEMENT_3D ( 'NONE', #174, #176, #253 ) ;
#213 = ORIENTED_EDGE ( 'NONE', *, *, #98, .F. ) ;
#214 = CALENDAR_DATE ( 2022, 7, 7 ) ;
#215 = EDGE_LOOP ( 'NONE', ( #210, #17 ) ) ;
#216 = PERSON_AND_ORGANIZATION_ROLE ( 'classification_officer' ) ;
#217 = CIRCLE ( 'NONE', #280, 8.000000000000000000 ) ;
#218 = AXIS2_PLACEMENT_3D ( 'NONE', #107, #84, #8 ) ;
#219 = CC_DESIGN_DATE_AND_TIME_ASSIGNMENT ( #154, #247, ( #119 ) ) ;
#220 = LOCAL_TIME ( 11, 49, 42.00000000000000000, #67 ) ;
#221 = DIRECTION ( 'NONE',  ( 0.000000000000000000, 0.000000000000000000, 1.000000000000000000 ) ) ;
#222 = DIRECTION ( 'NONE',  ( 1.000000000000000000, 0.000000000000000000, 0.000000000000000000 ) ) ;
#223 = VECTOR ( 'NONE', #128, 1000.000000000000000 ) ;
#224 = ADVANCED_FACE ( 'NONE', ( #153 ), #226, .T. ) ;
#225 = CARTESIAN_POINT ( 'NONE',  ( 0.000000000000000000, 0.000000000000000000, 0.000000000000000000 ) ) ;
#226 = CYLINDRICAL_SURFACE ( 'NONE', #212, 5.500000000000000000 ) ;
#227 = ADVANCED_FACE ( 'NONE', ( #300 ), #276, .T. ) ;
#228 = DIRECTION ( 'NONE',  ( -0.000000000000000000, -0.000000000000000000, -1.000000000000000000 ) ) ;
#229 = DIRECTION ( 'NONE',  ( 1.000000000000000000, 0.000000000000000000, 0.000000000000000000 ) ) ;
#230 = CARTESIAN_POINT ( 'NONE',  ( 0.000000000000000000, 0.000000000000000000, 105.0000000000000142 ) ) ;
#231 = CIRCLE ( 'NONE', #266, 5.500000000000000000 ) ;
#232 = ORIENTED_EDGE ( 'NONE', *, *, #1, .F. ) ;
#233 = APPROVAL_STATUS ( 'not_yet_approved' ) ;
#234 = ORIENTED_EDGE ( 'NONE', *, *, #18, .T. ) ;
#235 = ADVANCED_BREP_SHAPE_REPRESENTATION ( 'e609', ( #133, #20 ), #148 ) ;
#236 = EDGE_LOOP ( 'NONE', ( #204, #304, #134, #213 ) ) ;
#237 = DATE_AND_TIME ( #115, #220 ) ;
#238 = VECTOR ( 'NONE', #228, 1000.000000000000000 ) ;
#239 = ORIENTED_EDGE ( 'NONE', *, *, #172, .T. ) ;
#240 = APPROVAL_ROLE ( '' ) ;
#241 = CIRCLE ( 'NONE', #103, 8.000000000000000000 ) ;
#242 = EDGE_LOOP ( 'NONE', ( #87, #299, #283, #257 ) ) ;
#243 = FACE_OUTER_BOUND ( 'NONE', #95, .T. ) ;
#244 = DIRECTION ( 'NONE',  ( 1.000000000000000000, 0.000000000000000000, -0.000000000000000000 ) ) ;
#245 = EDGE_CURVE ( 'NONE', #44, #76, #290, .T. ) ;
#246 = ORGANIZATION ( 'NEURÈENÝ', 'NEURÈENÝ', '' ) ;
#247 = DATE_TIME_ROLE ( 'creation_date' ) ;
#248 = CARTESIAN_POINT ( 'NONE',  ( 0.000000000000000000, 0.000000000000000000, 5.199999999999996625 ) ) ;
#249 = EDGE_CURVE ( 'NONE', #114, #48, #74, .T. ) ;
#250 = LINE ( 'NONE', #33, #273 ) ;
#251 = PERSON_AND_ORGANIZATION_ROLE ( 'creator' ) ;
#252 = CARTESIAN_POINT ( 'NONE',  ( -5.500000000000000000, 0.000000000000000000, 105.0000000000000142 ) ) ;
#253 = DIRECTION ( 'NONE',  ( -1.000000000000000000, 0.000000000000000000, 0.000000000000000000 ) ) ;
#254 = APPLICATION_PROTOCOL_DEFINITION ( 'international standard', 'config_control_design', 1994, #55 ) ;
#255 = DIRECTION ( 'NONE',  ( 1.000000000000000000, 0.000000000000000000, 0.000000000000000000 ) ) ;
#256 = CARTESIAN_POINT ( 'NONE',  ( 5.500000000000000000, 6.735557395310442023E-16, 105.0000000000000142 ) ) ;
#257 = ORIENTED_EDGE ( 'NONE', *, *, #209, .F. ) ;
#258 = CARTESIAN_POINT ( 'NONE',  ( 8.000000000000000000, 9.797174393178825657E-16, 5.000000000000000000 ) ) ;
#259 = EDGE_CURVE ( 'NONE', #260, #114, #250, .T. ) ;
#260 = VERTEX_POINT ( 'NONE', #157 ) ;
#261 = ORIENTED_EDGE ( 'NONE', *, *, #286, .T. ) ;
#262 = COORDINATED_UNIVERSAL_TIME_OFFSET ( 1, 0, .AHEAD. ) ;
#263 = EDGE_CURVE ( 'NONE', #48, #114, #57, .T. ) ;
#264 = CC_DESIGN_DATE_AND_TIME_ASSIGNMENT ( #43, #120, ( #12 ) ) ;
#265 = CYLINDRICAL_SURFACE ( 'NONE', #11, 8.000000000000000000 ) ;
#266 = AXIS2_PLACEMENT_3D ( 'NONE', #104, #221, #3 ) ;
#267 = FACE_OUTER_BOUND ( 'NONE', #101, .T. ) ;
#268 = DIRECTION ( 'NONE',  ( -0.000000000000000000, -0.000000000000000000, -1.000000000000000000 ) ) ;
#269 = EDGE_CURVE ( 'NONE', #291, #48, #13, .T. ) ;
#270 = FACE_OUTER_BOUND ( 'NONE', #242, .T. ) ;
#271 = APPROVAL ( #233, 'NEURÈENÝ' ) ;
#272 = FACE_OUTER_BOUND ( 'NONE', #278, .T. ) ;
#273 = VECTOR ( 'NONE', #130, 1000.000000000000000 ) ;
#274 = APPROVAL_ROLE ( '' ) ;
#275 = CARTESIAN_POINT ( 'NONE',  ( -5.699999999999999289, 6.980486755139912122E-16, 4.999999999999998224 ) ) ;
#276 = CYLINDRICAL_SURFACE ( 'NONE', #21, 8.000000000000000000 ) ;
#277 = DIRECTION ( 'NONE',  ( 0.000000000000000000, 0.000000000000000000, 1.000000000000000000 ) ) ;
#278 = EDGE_LOOP ( 'NONE', ( #141, #65, #207, #162 ) ) ;
#279 = CARTESIAN_POINT ( 'NONE',  ( 0.000000000000000000, 0.000000000000000000, 0.000000000000000000 ) ) ;
#280 = AXIS2_PLACEMENT_3D ( 'NONE', #281, #158, #198 ) ;
#281 = CARTESIAN_POINT ( 'NONE',  ( 0.000000000000000000, 0.000000000000000000, 5.000000000000000000 ) ) ;
#282 = DATE_AND_TIME ( #117, #211 ) ;
#283 = ORIENTED_EDGE ( 'NONE', *, *, #98, .T. ) ;
#284 = EDGE_CURVE ( 'NONE', #44, #306, #85, .T. ) ;
#285 = EDGE_LOOP ( 'NONE', ( #192, #75 ) ) ;
#286 = EDGE_CURVE ( 'NONE', #22, #306, #167, .T. ) ;
#287 = SECURITY_CLASSIFICATION_LEVEL ( 'unclassified' ) ;
#288 = CIRCLE ( 'NONE', #109, 5.699999999999999289 ) ;
#289 = AXIS2_PLACEMENT_3D ( 'NONE', #92, #37, #132 ) ;
#290 = CIRCLE ( 'NONE', #73, 5.500000000000000000 ) ;
#291 = VERTEX_POINT ( 'NONE', #258 ) ;
#292 = CARTESIAN_POINT ( 'NONE',  ( 0.000000000000000000, 0.000000000000000000, 105.0000000000000142 ) ) ;
#293 = DIRECTION ( 'NONE',  ( 1.000000000000000000, 0.000000000000000000, -0.000000000000000000 ) ) ;
#294 = APPLICATION_CONTEXT ( 'configuration controlled 3d designs of mechanical parts and assemblies' ) ;
#295 = CIRCLE ( 'NONE', #126, 5.500000000000000000 ) ;
#296 = CARTESIAN_POINT ( 'NONE',  ( 5.500000000000000000, 6.735557395310442023E-16, 105.0000000000000142 ) ) ;
#297 = DIRECTION ( 'NONE',  ( 1.000000000000000000, 0.000000000000000000, 0.000000000000000000 ) ) ;
#298 = CARTESIAN_POINT ( 'NONE',  ( -5.500000000000000000, 0.000000000000000000, 5.199999999999996625 ) ) ;
#299 = ORIENTED_EDGE ( 'NONE', *, *, #196, .F. ) ;
#300 = FACE_OUTER_BOUND ( 'NONE', #63, .T. ) ;
#301 = CARTESIAN_POINT ( 'NONE',  ( 0.000000000000000000, 0.000000000000000000, 0.000000000000000000 ) ) ;
#302 = EDGE_LOOP ( 'NONE', ( #69, #232, #239, #261 ) ) ;
#303 = CALENDAR_DATE ( 2022, 7, 7 ) ;
#304 = ORIENTED_EDGE ( 'NONE', *, *, #194, .T. ) ;
#305 = ORIENTED_EDGE ( 'NONE', *, *, #259, .T. ) ;
#306 = VERTEX_POINT ( 'NONE', #203 ) ;
#307 = APPROVAL_ROLE ( '' ) ;
ENDSEC;
END-ISO-10303-21;
