ISO-10303-21;
HEADER;
FILE_DESCRIPTION (( 'STEP AP203' ),
    '1' );
FILE_NAME ('5a8c.STEP',
    '2023-02-12T10:42:56',
    ( '' ),
    ( '' ),
    'SwSTEP 2.0',
    'SolidWorks 2019',
    '' );
FILE_SCHEMA (( 'CONFIG_CONTROL_DESIGN' ));
ENDSEC;

DATA;
#1 = ADVANCED_BREP_SHAPE_REPRESENTATION ( '5a8c', ( #175, #184 ), #132 ) ;
#2 = DIRECTION ( 'NONE',  ( 0.000000000000000000, 0.000000000000000000, 1.000000000000000000 ) ) ;
#3 = ORGANIZATION ( 'NEURÈENÝ', 'NEURÈENÝ', '' ) ;
#4 = APPROVAL ( #64, 'NEURÈENÝ' ) ;
#5 = ADVANCED_FACE ( 'NONE', ( #227 ), #203, .T. ) ;
#6 = AXIS2_PLACEMENT_3D ( 'NONE', #180, #143, #39 ) ;
#7 = DIRECTION ( 'NONE',  ( -0.000000000000000000, -0.000000000000000000, -1.000000000000000000 ) ) ;
#8 = CC_DESIGN_PERSON_AND_ORGANIZATION_ASSIGNMENT ( #29, #115, ( #62 ) ) ;
#9 = CALENDAR_DATE ( 2023, 12, 2 ) ;
#10 = DIRECTION ( 'NONE',  ( -0.000000000000000000, -0.000000000000000000, -1.000000000000000000 ) ) ;
#11 = ORIENTED_EDGE ( 'NONE', *, *, #120, .F. ) ;
#12 = DATE_AND_TIME ( #133, #89 ) ;
#13 = CYLINDRICAL_SURFACE ( 'NONE', #156, 8.000000000000000000 ) ;
#14 = PERSON ( 'NEURÈENÝ', 'NEURÈENÝ', 'NEURÈENÝ', ('NEURÈENÝ'), ('NEURÈENÝ'), ('NEURÈENÝ') ) ;
#15 = APPLICATION_PROTOCOL_DEFINITION ( 'international standard', 'config_control_design', 1994, #86 ) ;
#16 = VERTEX_POINT ( 'NONE', #129 ) ;
#17 = DIRECTION ( 'NONE',  ( 1.000000000000000000, 0.000000000000000000, 0.000000000000000000 ) ) ;
#18 = AXIS2_PLACEMENT_3D ( 'NONE', #37, #158, #231 ) ;
#19 = EDGE_LOOP ( 'NONE', ( #246, #127, #153, #251 ) ) ;
#20 = DIRECTION ( 'NONE',  ( 0.000000000000000000, 0.000000000000000000, 1.000000000000000000 ) ) ;
#21 = VERTEX_POINT ( 'NONE', #223 ) ;
#22 = EDGE_LOOP ( 'NONE', ( #229, #33, #82, #72 ) ) ;
#23 =( NAMED_UNIT ( * ) PLANE_ANGLE_UNIT ( ) SI_UNIT ( $, .RADIAN. ) );
#24 = CIRCLE ( 'NONE', #230, 11.00000000000000000 ) ;
#25 = PRODUCT_DEFINITION ( 'NEZNÁMÝ', '', #62, #125 ) ;
#26 = CIRCLE ( 'NONE', #250, 8.000000000000000000 ) ;
#27 = DIRECTION ( 'NONE',  ( 0.000000000000000000, 0.000000000000000000, 1.000000000000000000 ) ) ;
#28 = DIRECTION ( 'NONE',  ( 1.000000000000000000, 0.000000000000000000, 0.000000000000000000 ) ) ;
#29 = PERSON_AND_ORGANIZATION ( #14, #3 ) ;
#30 = CARTESIAN_POINT ( 'NONE',  ( 0.000000000000000000, 0.000000000000000000, 7.000000000000000000 ) ) ;
#31 = EDGE_CURVE ( 'NONE', #107, #131, #48, .T. ) ;
#32 = APPROVAL_ROLE ( '' ) ;
#33 = ORIENTED_EDGE ( 'NONE', *, *, #128, .T. ) ;
#34 = CIRCLE ( 'NONE', #94, 8.000000000000000000 ) ;
#35 = DIRECTION ( 'NONE',  ( 0.000000000000000000, 0.000000000000000000, 1.000000000000000000 ) ) ;
#36 = ADVANCED_FACE ( 'NONE', ( #150 ), #13, .T. ) ;
#37 = CARTESIAN_POINT ( 'NONE',  ( 0.000000000000000000, 0.000000000000000000, 630.0000000000000000 ) ) ;
#38 = DIRECTION ( 'NONE',  ( 1.000000000000000000, 0.000000000000000000, 0.000000000000000000 ) ) ;
#39 = DIRECTION ( 'NONE',  ( -1.000000000000000000, 0.000000000000000000, 0.000000000000000000 ) ) ;
#40 = AXIS2_PLACEMENT_3D ( 'NONE', #255, #66, #17 ) ;
#41 = PERSON_AND_ORGANIZATION ( #14, #3 ) ;
#42 = VERTEX_POINT ( 'NONE', #112 ) ;
#43 = DIRECTION ( 'NONE',  ( 1.000000000000000000, 0.000000000000000000, -0.000000000000000000 ) ) ;
#44 = DIRECTION ( 'NONE',  ( 1.000000000000000000, 0.000000000000000000, 0.000000000000000000 ) ) ;
#45 = AXIS2_PLACEMENT_3D ( 'NONE', #124, #141, #38 ) ;
#46 = ADVANCED_FACE ( 'NONE', ( #168 ), #188, .T. ) ;
#47 = CARTESIAN_POINT ( 'NONE',  ( 0.000000000000000000, 0.000000000000000000, 0.000000000000000000 ) ) ;
#48 = CIRCLE ( 'NONE', #218, 8.000000000000000000 ) ;
#49 = AXIS2_PLACEMENT_3D ( 'NONE', #105, #68, #210 ) ;
#50 = CARTESIAN_POINT ( 'NONE',  ( 0.000000000000000000, 0.000000000000000000, 630.0000000000000000 ) ) ;
#51 = DIRECTION ( 'NONE',  ( 1.000000000000000000, 0.000000000000000000, 0.000000000000000000 ) ) ;
#52 = LINE ( 'NONE', #228, #179 ) ;
#53 = EDGE_CURVE ( 'NONE', #21, #16, #26, .T. ) ;
#54 = APPROVAL_PERSON_ORGANIZATION ( #99, #75, #71 ) ;
#55 = PERSON_AND_ORGANIZATION ( #14, #3 ) ;
#56 = ORIENTED_EDGE ( 'NONE', *, *, #31, .F. ) ;
#57 = CARTESIAN_POINT ( 'NONE',  ( 0.000000000000000000, 0.000000000000000000, 7.000000000000000000 ) ) ;
#58 = SECURITY_CLASSIFICATION_LEVEL ( 'unclassified' ) ;
#59 = VECTOR ( 'NONE', #95, 1000.000000000000000 ) ;
#60 = PERSON_AND_ORGANIZATION_ROLE ( 'design_owner' ) ;
#61 = CC_DESIGN_PERSON_AND_ORGANIZATION_ASSIGNMENT ( #157, #248, ( #25 ) ) ;
#62 = PRODUCT_DEFINITION_FORMATION_WITH_SPECIFIED_SOURCE ( 'LIBOVOLNÝ', '', #216, .NOT_KNOWN. ) ;
#63 = ORIENTED_EDGE ( 'NONE', *, *, #120, .T. ) ;
#64 = APPROVAL_STATUS ( 'not_yet_approved' ) ;
#65 = ORIENTED_EDGE ( 'NONE', *, *, #126, .T. ) ;
#66 = DIRECTION ( 'NONE',  ( 0.000000000000000000, 0.000000000000000000, 1.000000000000000000 ) ) ;
#67 = DATE_AND_TIME ( #232, #101 ) ;
#68 = DIRECTION ( 'NONE',  ( 0.000000000000000000, 0.000000000000000000, 1.000000000000000000 ) ) ;
#69 = DIRECTION ( 'NONE',  ( 0.000000000000000000, 0.000000000000000000, 1.000000000000000000 ) ) ;
#70 = APPROVAL_PERSON_ORGANIZATION ( #135, #244, #32 ) ;
#71 = APPROVAL_ROLE ( '' ) ;
#72 = ORIENTED_EDGE ( 'NONE', *, *, #102, .F. ) ;
#73 = COORDINATED_UNIVERSAL_TIME_OFFSET ( 1, 0, .AHEAD. ) ;
#74 = DIRECTION ( 'NONE',  ( 1.000000000000000000, 0.000000000000000000, 0.000000000000000000 ) ) ;
#75 = APPROVAL ( #113, 'NEURÈENÝ' ) ;
#76 = ORIENTED_EDGE ( 'NONE', *, *, #183, .F. ) ;
#77 = VERTEX_POINT ( 'NONE', #243 ) ;
#78 = EDGE_LOOP ( 'NONE', ( #212, #56 ) ) ;
#79 = DIRECTION ( 'NONE',  ( 0.000000000000000000, 0.000000000000000000, 1.000000000000000000 ) ) ;
#80 = CC_DESIGN_APPROVAL ( #244, ( #62 ) ) ;
#81 = PERSON_AND_ORGANIZATION ( #14, #3 ) ;
#82 = ORIENTED_EDGE ( 'NONE', *, *, #31, .T. ) ;
#83 = APPROVAL_DATE_TIME ( #177, #4 ) ;
#84 = CC_DESIGN_PERSON_AND_ORGANIZATION_ASSIGNMENT ( #92, #202, ( #109 ) ) ;
#85 = FACE_BOUND ( 'NONE', #78, .T. ) ;
#86 = APPLICATION_CONTEXT ( 'configuration controlled 3d designs of mechanical parts and assemblies' ) ;
#87 = CC_DESIGN_APPROVAL ( #75, ( #109 ) ) ;
#88 = DIRECTION ( 'NONE',  ( 1.000000000000000000, 0.000000000000000000, -0.000000000000000000 ) ) ;
#89 = LOCAL_TIME ( 11, 42, 56.00000000000000000, #242 ) ;
#90 = EDGE_CURVE ( 'NONE', #131, #107, #34, .T. ) ;
#91 = EDGE_LOOP ( 'NONE', ( #140, #222 ) ) ;
#92 = PERSON_AND_ORGANIZATION ( #14, #3 ) ;
#93 = DIRECTION ( 'NONE',  ( -1.000000000000000000, 0.000000000000000000, 0.000000000000000000 ) ) ;
#94 = AXIS2_PLACEMENT_3D ( 'NONE', #204, #27, #114 ) ;
#95 = DIRECTION ( 'NONE',  ( -0.000000000000000000, -0.000000000000000000, -1.000000000000000000 ) ) ;
#96 = APPROVAL_DATE_TIME ( #12, #75 ) ;
#97 = ORIENTED_EDGE ( 'NONE', *, *, #169, .T. ) ;
#98 = CIRCLE ( 'NONE', #45, 11.00000000000000000 ) ;
#99 = PERSON_AND_ORGANIZATION ( #14, #3 ) ;
#100 = CARTESIAN_POINT ( 'NONE',  ( 0.000000000000000000, 0.000000000000000000, 630.0000000000000000 ) ) ;
#101 = LOCAL_TIME ( 11, 42, 56.00000000000000000, #160 ) ;
#102 = EDGE_CURVE ( 'NONE', #21, #131, #172, .T. ) ;
#103 = PLANE ( 'NONE',  #182 ) ;
#104 = COORDINATED_UNIVERSAL_TIME_OFFSET ( 1, 0, .AHEAD. ) ;
#105 = CARTESIAN_POINT ( 'NONE',  ( 0.000000000000000000, 0.000000000000000000, 630.0000000000000000 ) ) ;
#106 = CC_DESIGN_DATE_AND_TIME_ASSIGNMENT ( #67, #142, ( #25 ) ) ;
#107 = VERTEX_POINT ( 'NONE', #191 ) ;
#108 = DIRECTION ( 'NONE',  ( 1.000000000000000000, 0.000000000000000000, 0.000000000000000000 ) ) ;
#109 = SECURITY_CLASSIFICATION ( '', '', #58 ) ;
#110 = APPLICATION_PROTOCOL_DEFINITION ( 'international standard', 'config_control_design', 1994, #205 ) ;
#111 = PERSON_AND_ORGANIZATION_ROLE ( 'creator' ) ;
#112 = CARTESIAN_POINT ( 'NONE',  ( 11.00000000000000000, 1.347111479062088405E-15, 0.000000000000000000 ) ) ;
#113 = APPROVAL_STATUS ( 'not_yet_approved' ) ;
#114 = DIRECTION ( 'NONE',  ( 1.000000000000000000, 0.000000000000000000, 0.000000000000000000 ) ) ;
#115 = PERSON_AND_ORGANIZATION_ROLE ( 'design_supplier' ) ;
#116 = DIRECTION ( 'NONE',  ( -0.000000000000000000, -0.000000000000000000, -1.000000000000000000 ) ) ;
#117 = CALENDAR_DATE ( 2023, 12, 2 ) ;
#118 = LINE ( 'NONE', #225, #146 ) ;
#119 = CARTESIAN_POINT ( 'NONE',  ( 0.000000000000000000, 0.000000000000000000, 0.000000000000000000 ) ) ;
#120 = EDGE_CURVE ( 'NONE', #77, #159, #200, .T. ) ;
#121 = CALENDAR_DATE ( 2023, 12, 2 ) ;
#122 = LINE ( 'NONE', #162, #176 ) ;
#123 = ORIENTED_EDGE ( 'NONE', *, *, #169, .F. ) ;
#124 = CARTESIAN_POINT ( 'NONE',  ( 0.000000000000000000, 0.000000000000000000, 7.000000000000000000 ) ) ;
#125 = DESIGN_CONTEXT ( 'detailed design', #86, 'design' ) ;
#126 = EDGE_CURVE ( 'NONE', #77, #42, #118, .T. ) ;
#127 = ORIENTED_EDGE ( 'NONE', *, *, #53, .F. ) ;
#128 = EDGE_CURVE ( 'NONE', #16, #107, #52, .T. ) ;
#129 = CARTESIAN_POINT ( 'NONE',  ( 8.000000000000000000, 9.797174393178825657E-16, 630.0000000000000000 ) ) ;
#130 = ADVANCED_FACE ( 'NONE', ( #254 ), #209, .T. ) ;
#131 = VERTEX_POINT ( 'NONE', #194 ) ;
#132 =( GEOMETRIC_REPRESENTATION_CONTEXT ( 3 ) GLOBAL_UNCERTAINTY_ASSIGNED_CONTEXT ( ( #214 ) ) GLOBAL_UNIT_ASSIGNED_CONTEXT ( ( #215, #23, #185 ) ) REPRESENTATION_CONTEXT ( 'NONE', 'WORKASPACE' ) );
#133 = CALENDAR_DATE ( 2023, 12, 2 ) ;
#134 = VERTEX_POINT ( 'NONE', #237 ) ;
#135 = PERSON_AND_ORGANIZATION ( #14, #3 ) ;
#136 = DIRECTION ( 'NONE',  ( -1.000000000000000000, 0.000000000000000000, 0.000000000000000000 ) ) ;
#137 = ADVANCED_FACE ( 'NONE', ( #161 ), #213, .F. ) ;
#138 = DIRECTION ( 'NONE',  ( -0.000000000000000000, -0.000000000000000000, -1.000000000000000000 ) ) ;
#139 = PRODUCT_RELATED_PRODUCT_CATEGORY ( 'detail', '', ( #216 ) ) ;
#140 = ORIENTED_EDGE ( 'NONE', *, *, #53, .T. ) ;
#141 = DIRECTION ( 'NONE',  ( 0.000000000000000000, 0.000000000000000000, 1.000000000000000000 ) ) ;
#142 = DATE_TIME_ROLE ( 'creation_date' ) ;
#143 = DIRECTION ( 'NONE',  ( -0.000000000000000000, -0.000000000000000000, -1.000000000000000000 ) ) ;
#144 = EDGE_CURVE ( 'NONE', #42, #134, #163, .T. ) ;
#145 = CYLINDRICAL_SURFACE ( 'NONE', #6, 11.00000000000000000 ) ;
#146 = VECTOR ( 'NONE', #192, 1000.000000000000000 ) ;
#147 = CC_DESIGN_PERSON_AND_ORGANIZATION_ASSIGNMENT ( #81, #60, ( #216 ) ) ;
#148 = AXIS2_PLACEMENT_3D ( 'NONE', #174, #10, #151 ) ;
#149 = CARTESIAN_POINT ( 'NONE',  ( 0.000000000000000000, 0.000000000000000000, 630.0000000000000000 ) ) ;
#150 = FACE_OUTER_BOUND ( 'NONE', #19, .T. ) ;
#151 = DIRECTION ( 'NONE',  ( -1.000000000000000000, 0.000000000000000000, 0.000000000000000000 ) ) ;
#152 = DATE_AND_TIME ( #117, #206 ) ;
#153 = ORIENTED_EDGE ( 'NONE', *, *, #102, .T. ) ;
#154 = EDGE_CURVE ( 'NONE', #16, #21, #181, .T. ) ;
#155 = ORIENTED_EDGE ( 'NONE', *, *, #217, .F. ) ;
#156 = AXIS2_PLACEMENT_3D ( 'NONE', #100, #7, #93 ) ;
#157 = PERSON_AND_ORGANIZATION ( #14, #3 ) ;
#158 = DIRECTION ( 'NONE',  ( 0.000000000000000000, 0.000000000000000000, 1.000000000000000000 ) ) ;
#159 = VERTEX_POINT ( 'NONE', #164 ) ;
#160 = COORDINATED_UNIVERSAL_TIME_OFFSET ( 1, 0, .AHEAD. ) ;
#161 = FACE_OUTER_BOUND ( 'NONE', #193, .T. ) ;
#162 = CARTESIAN_POINT ( 'NONE',  ( -11.00000000000000000, 0.000000000000000000, 7.000000000000000000 ) ) ;
#163 = CIRCLE ( 'NONE', #40, 11.00000000000000000 ) ;
#164 = CARTESIAN_POINT ( 'NONE',  ( -11.00000000000000000, 0.000000000000000000, 7.000000000000000000 ) ) ;
#165 = AXIS2_PLACEMENT_3D ( 'NONE', #119, #2, #88 ) ;
#166 = CC_DESIGN_DATE_AND_TIME_ASSIGNMENT ( #167, #190, ( #109 ) ) ;
#167 = DATE_AND_TIME ( #9, #221 ) ;
#168 = FACE_OUTER_BOUND ( 'NONE', #249, .T. ) ;
#169 = EDGE_CURVE ( 'NONE', #159, #77, #98, .T. ) ;
#170 = DIRECTION ( 'NONE',  ( 0.000000000000000000, 0.000000000000000000, 1.000000000000000000 ) ) ;
#171 = APPROVAL_STATUS ( 'not_yet_approved' ) ;
#172 = LINE ( 'NONE', #235, #59 ) ;
#173 = ADVANCED_FACE ( 'NONE', ( #234 ), #145, .T. ) ;
#174 = CARTESIAN_POINT ( 'NONE',  ( 0.000000000000000000, 0.000000000000000000, 7.000000000000000000 ) ) ;
#175 = MANIFOLD_SOLID_BREP ( 'Pøidat vysunutím3', #240 ) ;
#176 = VECTOR ( 'NONE', #199, 1000.000000000000000 ) ;
#177 = DATE_AND_TIME ( #121, #197 ) ;
#178 = CARTESIAN_POINT ( 'NONE',  ( 0.000000000000000000, 0.000000000000000000, 0.000000000000000000 ) ) ;
#179 = VECTOR ( 'NONE', #138, 1000.000000000000000 ) ;
#180 = CARTESIAN_POINT ( 'NONE',  ( 0.000000000000000000, 0.000000000000000000, 7.000000000000000000 ) ) ;
#181 = CIRCLE ( 'NONE', #49, 8.000000000000000000 ) ;
#182 = AXIS2_PLACEMENT_3D ( 'NONE', #196, #20, #43 ) ;
#183 = EDGE_CURVE ( 'NONE', #159, #134, #122, .T. ) ;
#184 = AXIS2_PLACEMENT_3D ( 'NONE', #47, #69, #44 ) ;
#185 =( NAMED_UNIT ( * ) SI_UNIT ( $, .STERADIAN. ) SOLID_ANGLE_UNIT ( ) );
#186 = DIRECTION ( 'NONE',  ( 0.000000000000000000, 0.000000000000000000, 1.000000000000000000 ) ) ;
#187 = COORDINATED_UNIVERSAL_TIME_OFFSET ( 1, 0, .AHEAD. ) ;
#188 = CYLINDRICAL_SURFACE ( 'NONE', #148, 11.00000000000000000 ) ;
#189 = AXIS2_PLACEMENT_3D ( 'NONE', #57, #35, #28 ) ;
#190 = DATE_TIME_ROLE ( 'classification_date' ) ;
#191 = CARTESIAN_POINT ( 'NONE',  ( 8.000000000000000000, 9.797174393178825657E-16, 7.000000000000000000 ) ) ;
#192 = DIRECTION ( 'NONE',  ( -0.000000000000000000, -0.000000000000000000, -1.000000000000000000 ) ) ;
#193 = EDGE_LOOP ( 'NONE', ( #155, #253 ) ) ;
#194 = CARTESIAN_POINT ( 'NONE',  ( -8.000000000000000000, 0.000000000000000000, 7.000000000000000000 ) ) ;
#195 = ORIENTED_EDGE ( 'NONE', *, *, #144, .T. ) ;
#196 = CARTESIAN_POINT ( 'NONE',  ( 0.000000000000000000, 0.000000000000000000, 7.000000000000000000 ) ) ;
#197 = LOCAL_TIME ( 11, 42, 56.00000000000000000, #104 ) ;
#198 = EDGE_LOOP ( 'NONE', ( #97, #63 ) ) ;
#199 = DIRECTION ( 'NONE',  ( -0.000000000000000000, -0.000000000000000000, -1.000000000000000000 ) ) ;
#200 = CIRCLE ( 'NONE', #189, 11.00000000000000000 ) ;
#201 = APPROVAL_PERSON_ORGANIZATION ( #41, #4, #252 ) ;
#202 = PERSON_AND_ORGANIZATION_ROLE ( 'classification_officer' ) ;
#203 = CYLINDRICAL_SURFACE ( 'NONE', #247, 8.000000000000000000 ) ;
#204 = CARTESIAN_POINT ( 'NONE',  ( 0.000000000000000000, 0.000000000000000000, 7.000000000000000000 ) ) ;
#205 = APPLICATION_CONTEXT ( 'configuration controlled 3d designs of mechanical parts and assemblies' ) ;
#206 = LOCAL_TIME ( 11, 42, 56.00000000000000000, #187 ) ;
#207 = MECHANICAL_CONTEXT ( 'NONE', #205, 'mechanical' ) ;
#208 = CC_DESIGN_APPROVAL ( #4, ( #25 ) ) ;
#209 = PLANE ( 'NONE',  #18 ) ;
#210 = DIRECTION ( 'NONE',  ( 1.000000000000000000, 0.000000000000000000, 0.000000000000000000 ) ) ;
#211 = ADVANCED_FACE ( 'NONE', ( #85, #236 ), #103, .T. ) ;
#212 = ORIENTED_EDGE ( 'NONE', *, *, #90, .F. ) ;
#213 = PLANE ( 'NONE',  #165 ) ;
#214 = UNCERTAINTY_MEASURE_WITH_UNIT (LENGTH_MEASURE( 1.000000000000000082E-05 ), #215, 'distance_accuracy_value', 'NONE');
#215 =( LENGTH_UNIT ( ) NAMED_UNIT ( * ) SI_UNIT ( .MILLI., .METRE. ) );
#216 = PRODUCT ( '5a8c', '5a8c', '', ( #207 ) ) ;
#217 = EDGE_CURVE ( 'NONE', #134, #42, #24, .T. ) ;
#218 = AXIS2_PLACEMENT_3D ( 'NONE', #30, #186, #74 ) ;
#219 = CC_DESIGN_SECURITY_CLASSIFICATION ( #109, ( #62 ) ) ;
#220 = SHAPE_DEFINITION_REPRESENTATION ( #241, #1 ) ;
#221 = LOCAL_TIME ( 11, 42, 56.00000000000000000, #73 ) ;
#222 = ORIENTED_EDGE ( 'NONE', *, *, #154, .T. ) ;
#223 = CARTESIAN_POINT ( 'NONE',  ( -8.000000000000000000, 0.000000000000000000, 630.0000000000000000 ) ) ;
#224 = ORIENTED_EDGE ( 'NONE', *, *, #217, .T. ) ;
#225 = CARTESIAN_POINT ( 'NONE',  ( 11.00000000000000000, 1.347111479062088405E-15, 7.000000000000000000 ) ) ;
#226 = APPROVAL_DATE_TIME ( #152, #244 ) ;
#227 = FACE_OUTER_BOUND ( 'NONE', #22, .T. ) ;
#228 = CARTESIAN_POINT ( 'NONE',  ( 8.000000000000000000, 9.797174393178825657E-16, 630.0000000000000000 ) ) ;
#229 = ORIENTED_EDGE ( 'NONE', *, *, #154, .F. ) ;
#230 = AXIS2_PLACEMENT_3D ( 'NONE', #178, #79, #108 ) ;
#231 = DIRECTION ( 'NONE',  ( 1.000000000000000000, 0.000000000000000000, -0.000000000000000000 ) ) ;
#232 = CALENDAR_DATE ( 2023, 12, 2 ) ;
#233 = ORIENTED_EDGE ( 'NONE', *, *, #183, .T. ) ;
#234 = FACE_OUTER_BOUND ( 'NONE', #239, .T. ) ;
#235 = CARTESIAN_POINT ( 'NONE',  ( -8.000000000000000000, 0.000000000000000000, 630.0000000000000000 ) ) ;
#236 = FACE_OUTER_BOUND ( 'NONE', #198, .T. ) ;
#237 = CARTESIAN_POINT ( 'NONE',  ( -11.00000000000000000, 0.000000000000000000, 0.000000000000000000 ) ) ;
#238 = CC_DESIGN_PERSON_AND_ORGANIZATION_ASSIGNMENT ( #55, #111, ( #62 ) ) ;
#239 = EDGE_LOOP ( 'NONE', ( #11, #65, #195, #76 ) ) ;
#240 = CLOSED_SHELL ( 'NONE', ( #5, #173, #46, #211, #137, #36, #130 ) ) ;
#241 = PRODUCT_DEFINITION_SHAPE ( 'NONE', 'NONE',  #25 ) ;
#242 = COORDINATED_UNIVERSAL_TIME_OFFSET ( 1, 0, .AHEAD. ) ;
#243 = CARTESIAN_POINT ( 'NONE',  ( 11.00000000000000000, 1.347111479062088405E-15, 7.000000000000000000 ) ) ;
#244 = APPROVAL ( #171, 'NEURÈENÝ' ) ;
#245 = ORIENTED_EDGE ( 'NONE', *, *, #126, .F. ) ;
#246 = ORIENTED_EDGE ( 'NONE', *, *, #128, .F. ) ;
#247 = AXIS2_PLACEMENT_3D ( 'NONE', #149, #116, #136 ) ;
#248 = PERSON_AND_ORGANIZATION_ROLE ( 'creator' ) ;
#249 = EDGE_LOOP ( 'NONE', ( #245, #123, #233, #224 ) ) ;
#250 = AXIS2_PLACEMENT_3D ( 'NONE', #50, #170, #51 ) ;
#251 = ORIENTED_EDGE ( 'NONE', *, *, #90, .T. ) ;
#252 = APPROVAL_ROLE ( '' ) ;
#253 = ORIENTED_EDGE ( 'NONE', *, *, #144, .F. ) ;
#254 = FACE_OUTER_BOUND ( 'NONE', #91, .T. ) ;
#255 = CARTESIAN_POINT ( 'NONE',  ( 0.000000000000000000, 0.000000000000000000, 0.000000000000000000 ) ) ;
ENDSEC;
END-ISO-10303-21;
