ISO-10303-21;
HEADER;
FILE_DESCRIPTION (( 'STEP AP203' ),
    '1' );
FILE_NAME ('c4f6.STEP',
    '2022-07-07T10:22:24',
    ( '' ),
    ( '' ),
    'SwSTEP 2.0',
    'SolidWorks 2019',
    '' );
FILE_SCHEMA (( 'CONFIG_CONTROL_DESIGN' ));
ENDSEC;

DATA;
#1 = DIRECTION ( 'NONE',  ( 0.000000000000000000, 0.000000000000000000, 1.000000000000000000 ) ) ;
#2 = EDGE_CURVE ( 'NONE', #39, #301, #171, .T. ) ;
#3 = CALENDAR_DATE ( 2022, 7, 7 ) ;
#4 = DIRECTION ( 'NONE',  ( 0.000000000000000000, 0.000000000000000000, 1.000000000000000000 ) ) ;
#5 = ORIENTED_EDGE ( 'NONE', *, *, #189, .F. ) ;
#6 = LINE ( 'NONE', #223, #126 ) ;
#7 = DATE_AND_TIME ( #206, #92 ) ;
#8 = CARTESIAN_POINT ( 'NONE',  ( 4.000000000000000000, 4.898587196589412829E-16, 3.000000000000000000 ) ) ;
#9 = AXIS2_PLACEMENT_3D ( 'NONE', #173, #16, #175 ) ;
#10 = FACE_OUTER_BOUND ( 'NONE', #279, .T. ) ;
#11 =( LENGTH_UNIT ( ) NAMED_UNIT ( * ) SI_UNIT ( .MILLI., .METRE. ) );
#12 = ORIENTED_EDGE ( 'NONE', *, *, #118, .F. ) ;
#13 = DATE_AND_TIME ( #203, #40 ) ;
#14 = ORIENTED_EDGE ( 'NONE', *, *, #53, .T. ) ;
#15 = PERSON_AND_ORGANIZATION ( #59, #231 ) ;
#16 = DIRECTION ( 'NONE',  ( 0.000000000000000000, 0.000000000000000000, 1.000000000000000000 ) ) ;
#17 = VERTEX_POINT ( 'NONE', #153 ) ;
#18 = LOCAL_TIME ( 12, 22, 24.00000000000000000, #24 ) ;
#19 = EDGE_LOOP ( 'NONE', ( #207, #161, #297, #42 ) ) ;
#20 = VERTEX_POINT ( 'NONE', #287 ) ;
#21 = TOROIDAL_SURFACE ( 'NONE', #235, 2.449999999999999734, 0.2000000000000000111 ) ;
#22 = UNCERTAINTY_MEASURE_WITH_UNIT (LENGTH_MEASURE( 1.000000000000000082E-05 ), #11, 'distance_accuracy_value', 'NONE');
#23 = AXIS2_PLACEMENT_3D ( 'NONE', #286, #52, #296 ) ;
#24 = COORDINATED_UNIVERSAL_TIME_OFFSET ( 1, 0, .AHEAD. ) ;
#25 = EDGE_CURVE ( 'NONE', #82, #20, #233, .T. ) ;
#26 = PERSON_AND_ORGANIZATION_ROLE ( 'creator' ) ;
#27 = CYLINDRICAL_SURFACE ( 'NONE', #159, 2.250000000000000000 ) ;
#28 = VERTEX_POINT ( 'NONE', #8 ) ;
#29 = LINE ( 'NONE', #96, #63 ) ;
#30 = CARTESIAN_POINT ( 'NONE',  ( 2.250000000000000000, 2.755455298081544285E-16, 128.0000000000000000 ) ) ;
#31 = CYLINDRICAL_SURFACE ( 'NONE', #102, 4.000000000000000000 ) ;
#32 = LINE ( 'NONE', #76, #110 ) ;
#33 = CARTESIAN_POINT ( 'NONE',  ( -2.250000000000000000, 0.000000000000000000, 128.0000000000000000 ) ) ;
#34 = PLANE ( 'NONE',  #304 ) ;
#35 = APPLICATION_PROTOCOL_DEFINITION ( 'international standard', 'config_control_design', 1994, #115 ) ;
#36 = CYLINDRICAL_SURFACE ( 'NONE', #93, 2.250000000000000000 ) ;
#37 = DIRECTION ( 'NONE',  ( 1.000000000000000000, 0.000000000000000000, 0.000000000000000000 ) ) ;
#38 = DIRECTION ( 'NONE',  ( 0.000000000000000000, 0.000000000000000000, 1.000000000000000000 ) ) ;
#39 = VERTEX_POINT ( 'NONE', #176 ) ;
#40 = LOCAL_TIME ( 12, 22, 24.00000000000000000, #131 ) ;
#41 = ORIENTED_EDGE ( 'NONE', *, *, #300, .F. ) ;
#42 = ORIENTED_EDGE ( 'NONE', *, *, #263, .T. ) ;
#43 = CIRCLE ( 'NONE', #83, 2.250000000000000000 ) ;
#44 = EDGE_CURVE ( 'NONE', #28, #215, #213, .T. ) ;
#45 = CC_DESIGN_PERSON_AND_ORGANIZATION_ASSIGNMENT ( #299, #201, ( #157 ) ) ;
#46 = LOCAL_TIME ( 12, 22, 24.00000000000000000, #251 ) ;
#47 = DIRECTION ( 'NONE',  ( 1.000000000000000000, 0.000000000000000000, -0.000000000000000000 ) ) ;
#48 = PERSON_AND_ORGANIZATION_ROLE ( 'classification_officer' ) ;
#49 = FACE_OUTER_BOUND ( 'NONE', #230, .T. ) ;
#50 = EDGE_LOOP ( 'NONE', ( #255, #12, #160, #64 ) ) ;
#51 = DIRECTION ( 'NONE',  ( 1.000000000000000000, 0.000000000000000000, 0.000000000000000000 ) ) ;
#52 = DIRECTION ( 'NONE',  ( -0.000000000000000000, -0.000000000000000000, -1.000000000000000000 ) ) ;
#53 = EDGE_CURVE ( 'NONE', #17, #62, #220, .T. ) ;
#54 = CYLINDRICAL_SURFACE ( 'NONE', #68, 4.000000000000000000 ) ;
#55 = DIRECTION ( 'NONE',  ( -0.000000000000000000, -0.000000000000000000, -1.000000000000000000 ) ) ;
#56 = AXIS2_PLACEMENT_3D ( 'NONE', #222, #199, #249 ) ;
#57 = CARTESIAN_POINT ( 'NONE',  ( 0.000000000000000000, 0.000000000000000000, 0.000000000000000000 ) ) ;
#58 = CARTESIAN_POINT ( 'NONE',  ( 2.250000000000000000, 2.755455298081544285E-16, 3.199999999999994404 ) ) ;
#59 = PERSON ( 'NEURÈENÝ', 'NEURÈENÝ', 'NEURÈENÝ', ('NEURÈENÝ'), ('NEURÈENÝ'), ('NEURÈENÝ') ) ;
#60 = FACE_OUTER_BOUND ( 'NONE', #19, .T. ) ;
#61 = APPROVAL_ROLE ( '' ) ;
#62 = VERTEX_POINT ( 'NONE', #266 ) ;
#63 = VECTOR ( 'NONE', #55, 1000.000000000000000 ) ;
#64 = ORIENTED_EDGE ( 'NONE', *, *, #280, .F. ) ;
#65 = ORIENTED_EDGE ( 'NONE', *, *, #258, .F. ) ;
#66 = AXIS2_PLACEMENT_3D ( 'NONE', #166, #194, #148 ) ;
#67 = CC_DESIGN_PERSON_AND_ORGANIZATION_ASSIGNMENT ( #170, #101, ( #140 ) ) ;
#68 = AXIS2_PLACEMENT_3D ( 'NONE', #295, #78, #149 ) ;
#69 = PERSON_AND_ORGANIZATION ( #59, #231 ) ;
#70 = DIRECTION ( 'NONE',  ( 0.000000000000000000, 0.000000000000000000, 1.000000000000000000 ) ) ;
#71 = DIRECTION ( 'NONE',  ( 0.000000000000000000, 0.000000000000000000, 1.000000000000000000 ) ) ;
#72 = AXIS2_PLACEMENT_3D ( 'NONE', #214, #4, #192 ) ;
#73 = DIRECTION ( 'NONE',  ( 0.000000000000000000, 0.000000000000000000, 1.000000000000000000 ) ) ;
#74 = APPROVAL ( #177, 'NEURÈENÝ' ) ;
#75 = DIRECTION ( 'NONE',  ( -0.000000000000000000, -0.000000000000000000, -1.000000000000000000 ) ) ;
#76 = CARTESIAN_POINT ( 'NONE',  ( -2.250000000000000000, 0.000000000000000000, 128.0000000000000000 ) ) ;
#77 = MANIFOLD_SOLID_BREP ( 'Zaoblit1', #282 ) ;
#78 = DIRECTION ( 'NONE',  ( -0.000000000000000000, -0.000000000000000000, -1.000000000000000000 ) ) ;
#79 = CARTESIAN_POINT ( 'NONE',  ( 0.000000000000000000, 0.000000000000000000, 3.199999999999994404 ) ) ;
#80 = MECHANICAL_CONTEXT ( 'NONE', #275, 'mechanical' ) ;
#81 = PRODUCT_RELATED_PRODUCT_CATEGORY ( 'detail', '', ( #140 ) ) ;
#82 = VERTEX_POINT ( 'NONE', #291 ) ;
#83 = AXIS2_PLACEMENT_3D ( 'NONE', #269, #71, #51 ) ;
#84 = ADVANCED_FACE ( 'NONE', ( #122 ), #54, .T. ) ;
#85 = ORIENTED_EDGE ( 'NONE', *, *, #99, .F. ) ;
#86 = PRODUCT_DEFINITION_FORMATION_WITH_SPECIFIED_SOURCE ( 'LIBOVOLNÝ', '', #140, .NOT_KNOWN. ) ;
#87 = DATE_AND_TIME ( #226, #46 ) ;
#88 = VERTEX_POINT ( 'NONE', #250 ) ;
#89 = VERTEX_POINT ( 'NONE', #33 ) ;
#90 = LOCAL_TIME ( 12, 22, 24.00000000000000000, #98 ) ;
#91 = EDGE_CURVE ( 'NONE', #88, #62, #306, .T. ) ;
#92 = LOCAL_TIME ( 12, 22, 24.00000000000000000, #154 ) ;
#93 = AXIS2_PLACEMENT_3D ( 'NONE', #274, #130, #202 ) ;
#94 = APPROVAL_STATUS ( 'not_yet_approved' ) ;
#95 = DIRECTION ( 'NONE',  ( 0.000000000000000000, 0.000000000000000000, 1.000000000000000000 ) ) ;
#96 = CARTESIAN_POINT ( 'NONE',  ( 4.000000000000000000, 4.898587196589412829E-16, 3.000000000000000000 ) ) ;
#97 = EDGE_CURVE ( 'NONE', #89, #39, #125, .T. ) ;
#98 = COORDINATED_UNIVERSAL_TIME_OFFSET ( 1, 0, .AHEAD. ) ;
#99 = EDGE_CURVE ( 'NONE', #301, #17, #187, .T. ) ;
#100 = ORIENTED_EDGE ( 'NONE', *, *, #25, .T. ) ;
#101 = PERSON_AND_ORGANIZATION_ROLE ( 'design_owner' ) ;
#102 = AXIS2_PLACEMENT_3D ( 'NONE', #247, #244, #169 ) ;
#103 = DIRECTION ( 'NONE',  ( -0.000000000000000000, -0.000000000000000000, -1.000000000000000000 ) ) ;
#104 = DIRECTION ( 'NONE',  ( 1.000000000000000000, 0.000000000000000000, 0.000000000000000000 ) ) ;
#105 = ORIENTED_EDGE ( 'NONE', *, *, #44, .T. ) ;
#106 = DIRECTION ( 'NONE',  ( 1.000000000000000000, 0.000000000000000000, 0.000000000000000000 ) ) ;
#107 = APPROVAL_DATE_TIME ( #13, #305 ) ;
#108 = DIRECTION ( 'NONE',  ( -0.000000000000000000, -0.000000000000000000, -1.000000000000000000 ) ) ;
#109 = APPROVAL_STATUS ( 'not_yet_approved' ) ;
#110 = VECTOR ( 'NONE', #272, 1000.000000000000000 ) ;
#111 = DIRECTION ( 'NONE',  ( 0.000000000000000000, 0.000000000000000000, 1.000000000000000000 ) ) ;
#112 = EDGE_LOOP ( 'NONE', ( #65, #158, #119, #41 ) ) ;
#113 = ADVANCED_FACE ( 'NONE', ( #60 ), #36, .T. ) ;
#114 = AXIS2_PLACEMENT_3D ( 'NONE', #284, #70, #198 ) ;
#115 = APPLICATION_CONTEXT ( 'configuration controlled 3d designs of mechanical parts and assemblies' ) ;
#116 = SHAPE_DEFINITION_REPRESENTATION ( #254, #257 ) ;
#117 = DIRECTION ( 'NONE',  ( 1.000000000000000000, 0.000000000000000000, 0.000000000000000000 ) ) ;
#118 = EDGE_CURVE ( 'NONE', #301, #88, #43, .T. ) ;
#119 = ORIENTED_EDGE ( 'NONE', *, *, #118, .T. ) ;
#120 = CARTESIAN_POINT ( 'NONE',  ( 0.000000000000000000, 0.000000000000000000, 128.0000000000000000 ) ) ;
#121 = DATE_TIME_ROLE ( 'classification_date' ) ;
#122 = FACE_OUTER_BOUND ( 'NONE', #228, .T. ) ;
#123 = FACE_OUTER_BOUND ( 'NONE', #184, .T. ) ;
#124 =( NAMED_UNIT ( * ) PLANE_ANGLE_UNIT ( ) SI_UNIT ( $, .RADIAN. ) );
#125 = CIRCLE ( 'NONE', #283, 2.250000000000000000 ) ;
#126 = VECTOR ( 'NONE', #75, 1000.000000000000000 ) ;
#127 = DIRECTION ( 'NONE',  ( 1.000000000000000000, 0.000000000000000000, 0.000000000000000000 ) ) ;
#128 = FACE_OUTER_BOUND ( 'NONE', #252, .T. ) ;
#129 = PERSON_AND_ORGANIZATION ( #59, #231 ) ;
#130 = DIRECTION ( 'NONE',  ( -0.000000000000000000, -0.000000000000000000, -1.000000000000000000 ) ) ;
#131 = COORDINATED_UNIVERSAL_TIME_OFFSET ( 1, 0, .AHEAD. ) ;
#132 = ORIENTED_EDGE ( 'NONE', *, *, #25, .F. ) ;
#133 = ORIENTED_EDGE ( 'NONE', *, *, #91, .T. ) ;
#134 = TOROIDAL_SURFACE ( 'NONE', #66, 2.449999999999999734, 0.2000000000000000111 ) ;
#135 = EDGE_CURVE ( 'NONE', #28, #20, #29, .T. ) ;
#136 = ORIENTED_EDGE ( 'NONE', *, *, #280, .T. ) ;
#137 = ADVANCED_FACE ( 'NONE', ( #289 ), #27, .T. ) ;
#138 = AXIS2_PLACEMENT_3D ( 'NONE', #241, #144, #117 ) ;
#139 = CIRCLE ( 'NONE', #23, 2.449999999999999734 ) ;
#140 = PRODUCT ( 'c4f6', 'c4f6', '', ( #80 ) ) ;
#141 = APPROVAL_ROLE ( '' ) ;
#142 = PERSON_AND_ORGANIZATION ( #59, #231 ) ;
#143 = ADVANCED_FACE ( 'NONE', ( #294 ), #21, .F. ) ;
#144 = DIRECTION ( 'NONE',  ( 0.000000000000000000, 0.000000000000000000, 1.000000000000000000 ) ) ;
#145 = CARTESIAN_POINT ( 'NONE',  ( 0.000000000000000000, 0.000000000000000000, 3.000000000000000000 ) ) ;
#146 = CARTESIAN_POINT ( 'NONE',  ( 0.000000000000000000, 0.000000000000000000, 128.0000000000000000 ) ) ;
#147 = ORIENTED_EDGE ( 'NONE', *, *, #303, .T. ) ;
#148 = DIRECTION ( 'NONE',  ( 1.000000000000000000, 0.000000000000000000, 0.000000000000000000 ) ) ;
#149 = DIRECTION ( 'NONE',  ( -1.000000000000000000, 0.000000000000000000, 0.000000000000000000 ) ) ;
#150 = FACE_BOUND ( 'NONE', #209, .T. ) ;
#151 = CARTESIAN_POINT ( 'NONE',  ( -2.449999999999999734, 3.000384657911015370E-16, 3.199999999999994404 ) ) ;
#152 = CARTESIAN_POINT ( 'NONE',  ( 0.000000000000000000, 0.000000000000000000, 0.000000000000000000 ) ) ;
#153 = CARTESIAN_POINT ( 'NONE',  ( 2.449999999999999734, 0.000000000000000000, 2.999999999999997335 ) ) ;
#154 = COORDINATED_UNIVERSAL_TIME_OFFSET ( 1, 0, .AHEAD. ) ;
#155 = EDGE_LOOP ( 'NONE', ( #276, #181 ) ) ;
#156 = ADVANCED_FACE ( 'NONE', ( #10 ), #134, .F. ) ;
#157 = PRODUCT_DEFINITION ( 'NEZNÁMÝ', '', #86, #298 ) ;
#158 = ORIENTED_EDGE ( 'NONE', *, *, #2, .T. ) ;
#159 = AXIS2_PLACEMENT_3D ( 'NONE', #120, #219, #292 ) ;
#160 = ORIENTED_EDGE ( 'NONE', *, *, #99, .T. ) ;
#161 = ORIENTED_EDGE ( 'NONE', *, *, #97, .F. ) ;
#162 = CC_DESIGN_DATE_AND_TIME_ASSIGNMENT ( #261, #121, ( #221 ) ) ;
#163 = CC_DESIGN_SECURITY_CLASSIFICATION ( #221, ( #86 ) ) ;
#164 = APPROVAL_DATE_TIME ( #190, #179 ) ;
#165 = CARTESIAN_POINT ( 'NONE',  ( 0.000000000000000000, 0.000000000000000000, 0.000000000000000000 ) ) ;
#166 = CARTESIAN_POINT ( 'NONE',  ( 0.000000000000000000, 0.000000000000000000, 3.199999999999994404 ) ) ;
#167 = AXIS2_PLACEMENT_3D ( 'NONE', #152, #111, #37 ) ;
#168 = DIRECTION ( 'NONE',  ( 1.000000000000000000, 0.000000000000000000, 0.000000000000000000 ) ) ;
#169 = DIRECTION ( 'NONE',  ( -1.000000000000000000, 0.000000000000000000, 0.000000000000000000 ) ) ;
#170 = PERSON_AND_ORGANIZATION ( #59, #231 ) ;
#171 = LINE ( 'NONE', #30, #208 ) ;
#172 = CARTESIAN_POINT ( 'NONE',  ( -4.000000000000000000, 0.000000000000000000, 3.000000000000000000 ) ) ;
#173 = CARTESIAN_POINT ( 'NONE',  ( 0.000000000000000000, 0.000000000000000000, 3.000000000000000000 ) ) ;
#174 = DIRECTION ( 'NONE',  ( -1.000000000000000000, 1.224646799147353207E-16, 0.000000000000000000 ) ) ;
#175 = DIRECTION ( 'NONE',  ( 1.000000000000000000, 0.000000000000000000, 0.000000000000000000 ) ) ;
#176 = CARTESIAN_POINT ( 'NONE',  ( 2.250000000000000000, 2.755455298081544285E-16, 128.0000000000000000 ) ) ;
#177 = APPROVAL_STATUS ( 'not_yet_approved' ) ;
#178 = ORIENTED_EDGE ( 'NONE', *, *, #53, .F. ) ;
#179 = APPROVAL ( #94, 'NEURÈENÝ' ) ;
#180 = ORIENTED_EDGE ( 'NONE', *, *, #135, .F. ) ;
#181 = ORIENTED_EDGE ( 'NONE', *, *, #258, .T. ) ;
#182 = AXIS2_PLACEMENT_3D ( 'NONE', #225, #246, #268 ) ;
#183 = CIRCLE ( 'NONE', #9, 4.000000000000000000 ) ;
#184 = EDGE_LOOP ( 'NONE', ( #132, #218 ) ) ;
#185 = APPROVAL_PERSON_ORGANIZATION ( #237, #179, #141 ) ;
#186 = ADVANCED_FACE ( 'NONE', ( #150, #128 ), #238, .T. ) ;
#187 = CIRCLE ( 'NONE', #56, 0.2000000000000000944 ) ;
#188 = CC_DESIGN_APPROVAL ( #179, ( #221 ) ) ;
#189 = EDGE_CURVE ( 'NONE', #215, #82, #6, .T. ) ;
#190 = DATE_AND_TIME ( #265, #90 ) ;
#191 = CARTESIAN_POINT ( 'NONE',  ( 0.000000000000000000, 0.000000000000000000, 0.000000000000000000 ) ) ;
#192 = DIRECTION ( 'NONE',  ( 1.000000000000000000, 0.000000000000000000, 0.000000000000000000 ) ) ;
#193 = ORIENTED_EDGE ( 'NONE', *, *, #189, .T. ) ;
#194 = DIRECTION ( 'NONE',  ( 0.000000000000000000, 0.000000000000000000, 1.000000000000000000 ) ) ;
#195 = APPROVAL_DATE_TIME ( #7, #74 ) ;
#196 = APPROVAL_PERSON_ORGANIZATION ( #129, #305, #229 ) ;
#197 = DIRECTION ( 'NONE',  ( 1.000000000000000000, 0.000000000000000000, 0.000000000000000000 ) ) ;
#198 = DIRECTION ( 'NONE',  ( 1.000000000000000000, 0.000000000000000000, -0.000000000000000000 ) ) ;
#199 = DIRECTION ( 'NONE',  ( 0.000000000000000000, -1.000000000000000000, 0.000000000000000000 ) ) ;
#200 = PLANE ( 'NONE',  #239 ) ;
#201 = PERSON_AND_ORGANIZATION_ROLE ( 'creator' ) ;
#202 = DIRECTION ( 'NONE',  ( -1.000000000000000000, 0.000000000000000000, 0.000000000000000000 ) ) ;
#203 = CALENDAR_DATE ( 2022, 7, 7 ) ;
#204 = ORIENTED_EDGE ( 'NONE', *, *, #44, .F. ) ;
#205 = EDGE_CURVE ( 'NONE', #20, #82, #253, .T. ) ;
#206 = CALENDAR_DATE ( 2022, 7, 7 ) ;
#207 = ORIENTED_EDGE ( 'NONE', *, *, #2, .F. ) ;
#208 = VECTOR ( 'NONE', #108, 1000.000000000000000 ) ;
#209 = EDGE_LOOP ( 'NONE', ( #14, #136 ) ) ;
#210 = ADVANCED_FACE ( 'NONE', ( #49 ), #31, .T. ) ;
#211 = ADVANCED_FACE ( 'NONE', ( #267 ), #200, .T. ) ;
#212 = APPROVAL_PERSON_ORGANIZATION ( #15, #74, #61 ) ;
#213 = CIRCLE ( 'NONE', #182, 4.000000000000000000 ) ;
#214 = CARTESIAN_POINT ( 'NONE',  ( 0.000000000000000000, 0.000000000000000000, 3.199999999999994404 ) ) ;
#215 = VERTEX_POINT ( 'NONE', #172 ) ;
#216 = DIRECTION ( 'NONE',  ( 1.000000000000000000, 0.000000000000000000, -0.000000000000000000 ) ) ;
#217 = CC_DESIGN_PERSON_AND_ORGANIZATION_ASSIGNMENT ( #142, #285, ( #86 ) ) ;
#218 = ORIENTED_EDGE ( 'NONE', *, *, #205, .F. ) ;
#219 = DIRECTION ( 'NONE',  ( -0.000000000000000000, -0.000000000000000000, -1.000000000000000000 ) ) ;
#220 = CIRCLE ( 'NONE', #248, 2.449999999999999734 ) ;
#221 = SECURITY_CLASSIFICATION ( '', '', #236 ) ;
#222 = CARTESIAN_POINT ( 'NONE',  ( 2.449999999999999734, 0.000000000000000000, 3.199999999999994404 ) ) ;
#223 = CARTESIAN_POINT ( 'NONE',  ( -4.000000000000000000, 0.000000000000000000, 3.000000000000000000 ) ) ;
#224 = APPLICATION_PROTOCOL_DEFINITION ( 'international standard', 'config_control_design', 1994, #275 ) ;
#225 = CARTESIAN_POINT ( 'NONE',  ( 0.000000000000000000, 0.000000000000000000, 3.000000000000000000 ) ) ;
#226 = CALENDAR_DATE ( 2022, 7, 7 ) ;
#227 = ADVANCED_FACE ( 'NONE', ( #123 ), #34, .F. ) ;
#228 = EDGE_LOOP ( 'NONE', ( #204, #256, #243, #5 ) ) ;
#229 = APPROVAL_ROLE ( '' ) ;
#230 = EDGE_LOOP ( 'NONE', ( #180, #232, #193, #100 ) ) ;
#231 = ORGANIZATION ( 'NEURÈENÝ', 'NEURÈENÝ', '' ) ;
#232 = ORIENTED_EDGE ( 'NONE', *, *, #303, .F. ) ;
#233 = CIRCLE ( 'NONE', #270, 4.000000000000000000 ) ;
#234 = CC_DESIGN_PERSON_AND_ORGANIZATION_ASSIGNMENT ( #69, #48, ( #221 ) ) ;
#235 = AXIS2_PLACEMENT_3D ( 'NONE', #79, #1, #106 ) ;
#236 = SECURITY_CLASSIFICATION_LEVEL ( 'unclassified' ) ;
#237 = PERSON_AND_ORGANIZATION ( #59, #231 ) ;
#238 = PLANE ( 'NONE',  #114 ) ;
#239 = AXIS2_PLACEMENT_3D ( 'NONE', #146, #95, #216 ) ;
#240 = ORIENTED_EDGE ( 'NONE', *, *, #263, .F. ) ;
#241 = CARTESIAN_POINT ( 'NONE',  ( 0.000000000000000000, 0.000000000000000000, 128.0000000000000000 ) ) ;
#242 = CC_DESIGN_DATE_AND_TIME_ASSIGNMENT ( #87, #290, ( #157 ) ) ;
#243 = ORIENTED_EDGE ( 'NONE', *, *, #205, .T. ) ;
#244 = DIRECTION ( 'NONE',  ( -0.000000000000000000, -0.000000000000000000, -1.000000000000000000 ) ) ;
#245 =( NAMED_UNIT ( * ) SI_UNIT ( $, .STERADIAN. ) SOLID_ANGLE_UNIT ( ) );
#246 = DIRECTION ( 'NONE',  ( 0.000000000000000000, 0.000000000000000000, 1.000000000000000000 ) ) ;
#247 = CARTESIAN_POINT ( 'NONE',  ( 0.000000000000000000, 0.000000000000000000, 3.000000000000000000 ) ) ;
#248 = AXIS2_PLACEMENT_3D ( 'NONE', #145, #103, #197 ) ;
#249 = DIRECTION ( 'NONE',  ( 0.000000000000000000, 0.000000000000000000, -1.000000000000000000 ) ) ;
#250 = CARTESIAN_POINT ( 'NONE',  ( -2.250000000000000000, 0.000000000000000000, 3.199999999999994404 ) ) ;
#251 = COORDINATED_UNIVERSAL_TIME_OFFSET ( 1, 0, .AHEAD. ) ;
#252 = EDGE_LOOP ( 'NONE', ( #147, #105 ) ) ;
#253 = CIRCLE ( 'NONE', #278, 4.000000000000000000 ) ;
#254 = PRODUCT_DEFINITION_SHAPE ( 'NONE', 'NONE',  #157 ) ;
#255 = ORIENTED_EDGE ( 'NONE', *, *, #91, .F. ) ;
#256 = ORIENTED_EDGE ( 'NONE', *, *, #135, .T. ) ;
#257 = ADVANCED_BREP_SHAPE_REPRESENTATION ( 'c4f6', ( #77, #167 ), #288 ) ;
#258 = EDGE_CURVE ( 'NONE', #39, #89, #302, .T. ) ;
#259 = AXIS2_PLACEMENT_3D ( 'NONE', #151, #293, #174 ) ;
#260 = PERSON_AND_ORGANIZATION ( #59, #231 ) ;
#261 = DATE_AND_TIME ( #3, #18 ) ;
#262 = DIRECTION ( 'NONE',  ( 0.000000000000000000, 0.000000000000000000, 1.000000000000000000 ) ) ;
#263 = EDGE_CURVE ( 'NONE', #88, #301, #281, .T. ) ;
#264 = DIRECTION ( 'NONE',  ( 0.000000000000000000, 0.000000000000000000, 1.000000000000000000 ) ) ;
#265 = CALENDAR_DATE ( 2022, 7, 7 ) ;
#266 = CARTESIAN_POINT ( 'NONE',  ( -2.449999999999999734, 3.000384657911015370E-16, 2.999999999999997335 ) ) ;
#267 = FACE_OUTER_BOUND ( 'NONE', #155, .T. ) ;
#268 = DIRECTION ( 'NONE',  ( 1.000000000000000000, 0.000000000000000000, 0.000000000000000000 ) ) ;
#269 = CARTESIAN_POINT ( 'NONE',  ( 0.000000000000000000, 0.000000000000000000, 3.199999999999994404 ) ) ;
#270 = AXIS2_PLACEMENT_3D ( 'NONE', #57, #73, #168 ) ;
#271 = CARTESIAN_POINT ( 'NONE',  ( 0.000000000000000000, 0.000000000000000000, 128.0000000000000000 ) ) ;
#272 = DIRECTION ( 'NONE',  ( -0.000000000000000000, -0.000000000000000000, -1.000000000000000000 ) ) ;
#273 = CC_DESIGN_APPROVAL ( #305, ( #157 ) ) ;
#274 = CARTESIAN_POINT ( 'NONE',  ( 0.000000000000000000, 0.000000000000000000, 128.0000000000000000 ) ) ;
#275 = APPLICATION_CONTEXT ( 'configuration controlled 3d designs of mechanical parts and assemblies' ) ;
#276 = ORIENTED_EDGE ( 'NONE', *, *, #97, .T. ) ;
#277 = CC_DESIGN_PERSON_AND_ORGANIZATION_ASSIGNMENT ( #260, #26, ( #86 ) ) ;
#278 = AXIS2_PLACEMENT_3D ( 'NONE', #165, #264, #104 ) ;
#279 = EDGE_LOOP ( 'NONE', ( #240, #133, #178, #85 ) ) ;
#280 = EDGE_CURVE ( 'NONE', #62, #17, #139, .T. ) ;
#281 = CIRCLE ( 'NONE', #72, 2.250000000000000000 ) ;
#282 = CLOSED_SHELL ( 'NONE', ( #156, #137, #84, #210, #186, #227, #113, #211, #143 ) ) ;
#283 = AXIS2_PLACEMENT_3D ( 'NONE', #271, #38, #127 ) ;
#284 = CARTESIAN_POINT ( 'NONE',  ( 0.000000000000000000, 0.000000000000000000, 3.000000000000000000 ) ) ;
#285 = PERSON_AND_ORGANIZATION_ROLE ( 'design_supplier' ) ;
#286 = CARTESIAN_POINT ( 'NONE',  ( 0.000000000000000000, 0.000000000000000000, 3.000000000000000000 ) ) ;
#287 = CARTESIAN_POINT ( 'NONE',  ( 4.000000000000000000, 4.898587196589412829E-16, 0.000000000000000000 ) ) ;
#288 =( GEOMETRIC_REPRESENTATION_CONTEXT ( 3 ) GLOBAL_UNCERTAINTY_ASSIGNED_CONTEXT ( ( #22 ) ) GLOBAL_UNIT_ASSIGNED_CONTEXT ( ( #11, #124, #245 ) ) REPRESENTATION_CONTEXT ( 'NONE', 'WORKASPACE' ) );
#289 = FACE_OUTER_BOUND ( 'NONE', #112, .T. ) ;
#290 = DATE_TIME_ROLE ( 'creation_date' ) ;
#291 = CARTESIAN_POINT ( 'NONE',  ( -4.000000000000000000, 0.000000000000000000, 0.000000000000000000 ) ) ;
#292 = DIRECTION ( 'NONE',  ( -1.000000000000000000, 0.000000000000000000, 0.000000000000000000 ) ) ;
#293 = DIRECTION ( 'NONE',  ( 1.224646799147353207E-16, 1.000000000000000000, -0.000000000000000000 ) ) ;
#294 = FACE_OUTER_BOUND ( 'NONE', #50, .T. ) ;
#295 = CARTESIAN_POINT ( 'NONE',  ( 0.000000000000000000, 0.000000000000000000, 3.000000000000000000 ) ) ;
#296 = DIRECTION ( 'NONE',  ( 1.000000000000000000, 0.000000000000000000, 0.000000000000000000 ) ) ;
#297 = ORIENTED_EDGE ( 'NONE', *, *, #300, .T. ) ;
#298 = DESIGN_CONTEXT ( 'detailed design', #115, 'design' ) ;
#299 = PERSON_AND_ORGANIZATION ( #59, #231 ) ;
#300 = EDGE_CURVE ( 'NONE', #89, #88, #32, .T. ) ;
#301 = VERTEX_POINT ( 'NONE', #58 ) ;
#302 = CIRCLE ( 'NONE', #138, 2.250000000000000000 ) ;
#303 = EDGE_CURVE ( 'NONE', #215, #28, #183, .T. ) ;
#304 = AXIS2_PLACEMENT_3D ( 'NONE', #191, #262, #47 ) ;
#305 = APPROVAL ( #109, 'NEURÈENÝ' ) ;
#306 = CIRCLE ( 'NONE', #259, 0.2000000000000000944 ) ;
#307 = CC_DESIGN_APPROVAL ( #74, ( #86 ) ) ;
ENDSEC;
END-ISO-10303-21;
