ISO-10303-21;
HEADER;
FILE_DESCRIPTION (( 'STEP AP203' ),
    '1' );
FILE_NAME ('a185.STEP',
    '2022-07-07T10:10:41',
    ( '' ),
    ( '' ),
    'SwSTEP 2.0',
    'SolidWorks 2019',
    '' );
FILE_SCHEMA (( 'CONFIG_CONTROL_DESIGN' ));
ENDSEC;

DATA;
#1 = EDGE_CURVE ( 'NONE', #56, #146, #68, .T. ) ;
#2 = ORIENTED_EDGE ( 'NONE', *, *, #86, .T. ) ;
#3 = DIRECTION ( 'NONE',  ( -0.000000000000000000, -0.000000000000000000, -1.000000000000000000 ) ) ;
#4 = DIRECTION ( 'NONE',  ( 1.000000000000000000, 0.000000000000000000, 0.000000000000000000 ) ) ;
#5 = CIRCLE ( 'NONE', #78, 0.2000000000000000944 ) ;
#6 = EDGE_CURVE ( 'NONE', #146, #18, #121, .T. ) ;
#7 = DIRECTION ( 'NONE',  ( -1.000000000000000000, 0.000000000000000000, 0.000000000000000000 ) ) ;
#8 = PERSON_AND_ORGANIZATION_ROLE ( 'design_supplier' ) ;
#9 = PERSON_AND_ORGANIZATION ( #200, #46 ) ;
#10 = EDGE_CURVE ( 'NONE', #278, #103, #271, .T. ) ;
#11 = CC_DESIGN_APPROVAL ( #16, ( #161 ) ) ;
#12 = COORDINATED_UNIVERSAL_TIME_OFFSET ( 1, 0, .AHEAD. ) ;
#13 = MECHANICAL_CONTEXT ( 'NONE', #30, 'mechanical' ) ;
#14 = ORIENTED_EDGE ( 'NONE', *, *, #6, .F. ) ;
#15 = CIRCLE ( 'NONE', #252, 6.000000000000000888 ) ;
#16 = APPROVAL ( #136, 'NEURÈENÝ' ) ;
#17 = ADVANCED_BREP_SHAPE_REPRESENTATION ( 'a185', ( #139, #255 ), #289 ) ;
#18 = VERTEX_POINT ( 'NONE', #195 ) ;
#19 = CARTESIAN_POINT ( 'NONE',  ( 3.100000000000000089, 3.796405077356794918E-16, 5.199999999999982414 ) ) ;
#20 = EDGE_CURVE ( 'NONE', #18, #254, #5, .T. ) ;
#21 = AXIS2_PLACEMENT_3D ( 'NONE', #172, #120, #75 ) ;
#22 = VERTEX_POINT ( 'NONE', #282 ) ;
#23 = SECURITY_CLASSIFICATION ( '', '', #60 ) ;
#24 = FACE_OUTER_BOUND ( 'NONE', #229, .T. ) ;
#25 = CARTESIAN_POINT ( 'NONE',  ( -6.000000000000000888, 0.000000000000000000, 0.000000000000000000 ) ) ;
#26 = EDGE_LOOP ( 'NONE', ( #183, #125, #284, #91 ) ) ;
#27 = DIRECTION ( 'NONE',  ( 0.000000000000000000, 0.000000000000000000, 1.000000000000000000 ) ) ;
#28 = LOCAL_TIME ( 12, 10, 41.00000000000000000, #248 ) ;
#29 = ORIENTED_EDGE ( 'NONE', *, *, #130, .T. ) ;
#30 = APPLICATION_CONTEXT ( 'configuration controlled 3d designs of mechanical parts and assemblies' ) ;
#31 = DIRECTION ( 'NONE',  ( 1.000000000000000000, 0.000000000000000000, 0.000000000000000000 ) ) ;
#32 = CARTESIAN_POINT ( 'NONE',  ( 0.000000000000000000, 0.000000000000000000, 5.199999999999982414 ) ) ;
#33 = DIRECTION ( 'NONE',  ( -0.000000000000000000, -0.000000000000000000, -1.000000000000000000 ) ) ;
#34 = CIRCLE ( 'NONE', #157, 6.000000000000000888 ) ;
#35 = CARTESIAN_POINT ( 'NONE',  ( 0.000000000000000000, 0.000000000000000000, 505.0000000000000000 ) ) ;
#36 = CALENDAR_DATE ( 2022, 7, 7 ) ;
#37 = CALENDAR_DATE ( 2022, 7, 7 ) ;
#38 = APPLICATION_PROTOCOL_DEFINITION ( 'international standard', 'config_control_design', 1994, #104 ) ;
#39 = APPROVAL_DATE_TIME ( #270, #16 ) ;
#40 = PERSON_AND_ORGANIZATION ( #200, #46 ) ;
#41 = EDGE_LOOP ( 'NONE', ( #47, #240 ) ) ;
#42 = EDGE_CURVE ( 'NONE', #140, #22, #250, .T. ) ;
#43 = CC_DESIGN_PERSON_AND_ORGANIZATION_ASSIGNMENT ( #296, #8, ( #161 ) ) ;
#44 = UNCERTAINTY_MEASURE_WITH_UNIT (LENGTH_MEASURE( 1.000000000000000082E-05 ), #186, 'distance_accuracy_value', 'NONE');
#45 = ORIENTED_EDGE ( 'NONE', *, *, #130, .F. ) ;
#46 = ORGANIZATION ( 'NEURÈENÝ', 'NEURÈENÝ', '' ) ;
#47 = ORIENTED_EDGE ( 'NONE', *, *, #239, .T. ) ;
#48 = CC_DESIGN_PERSON_AND_ORGANIZATION_ASSIGNMENT ( #134, #205, ( #161 ) ) ;
#49 = VERTEX_POINT ( 'NONE', #25 ) ;
#50 = CARTESIAN_POINT ( 'NONE',  ( 0.000000000000000000, 0.000000000000000000, 5.199999999999982414 ) ) ;
#51 = CARTESIAN_POINT ( 'NONE',  ( 0.000000000000000000, 0.000000000000000000, 5.000000000000000000 ) ) ;
#52 = CARTESIAN_POINT ( 'NONE',  ( 0.000000000000000000, 0.000000000000000000, 5.000000000000000000 ) ) ;
#53 = ORIENTED_EDGE ( 'NONE', *, *, #20, .F. ) ;
#54 = ORIENTED_EDGE ( 'NONE', *, *, #191, .F. ) ;
#55 = ORIENTED_EDGE ( 'NONE', *, *, #243, .F. ) ;
#56 = VERTEX_POINT ( 'NONE', #148 ) ;
#57 = DIRECTION ( 'NONE',  ( -0.000000000000000000, -0.000000000000000000, -1.000000000000000000 ) ) ;
#58 = FACE_BOUND ( 'NONE', #41, .T. ) ;
#59 = DIRECTION ( 'NONE',  ( 1.000000000000000000, 0.000000000000000000, 0.000000000000000000 ) ) ;
#60 = SECURITY_CLASSIFICATION_LEVEL ( 'unclassified' ) ;
#61 = APPLICATION_PROTOCOL_DEFINITION ( 'international standard', 'config_control_design', 1994, #30 ) ;
#62 = ADVANCED_FACE ( 'NONE', ( #76 ), #175, .T. ) ;
#63 = PERSON_AND_ORGANIZATION ( #200, #46 ) ;
#64 = VECTOR ( 'NONE', #33, 1000.000000000000000 ) ;
#65 = AXIS2_PLACEMENT_3D ( 'NONE', #106, #57, #279 ) ;
#66 = EDGE_CURVE ( 'NONE', #103, #222, #143, .T. ) ;
#67 = EDGE_LOOP ( 'NONE', ( #285, #236 ) ) ;
#68 = CIRCLE ( 'NONE', #300, 3.100000000000000089 ) ;
#69 = DIRECTION ( 'NONE',  ( 0.000000000000000000, 0.000000000000000000, 1.000000000000000000 ) ) ;
#70 = ORIENTED_EDGE ( 'NONE', *, *, #261, .T. ) ;
#71 = CYLINDRICAL_SURFACE ( 'NONE', #122, 6.000000000000000888 ) ;
#72 = LINE ( 'NONE', #166, #64 ) ;
#73 = AXIS2_PLACEMENT_3D ( 'NONE', #234, #163, #259 ) ;
#74 = EDGE_CURVE ( 'NONE', #146, #56, #145, .T. ) ;
#75 = DIRECTION ( 'NONE',  ( 1.000000000000000000, 0.000000000000000000, -0.000000000000000000 ) ) ;
#76 = FACE_OUTER_BOUND ( 'NONE', #258, .T. ) ;
#77 = PLANE ( 'NONE',  #21 ) ;
#78 = AXIS2_PLACEMENT_3D ( 'NONE', #288, #144, #264 ) ;
#79 = DIRECTION ( 'NONE',  ( 1.000000000000000000, 0.000000000000000000, 0.000000000000000000 ) ) ;
#80 = CIRCLE ( 'NONE', #228, 3.100000000000000089 ) ;
#81 = DIRECTION ( 'NONE',  ( 0.000000000000000000, -1.000000000000000000, 0.000000000000000000 ) ) ;
#82 = CARTESIAN_POINT ( 'NONE',  ( 0.000000000000000000, 0.000000000000000000, 505.0000000000000000 ) ) ;
#83 = DIRECTION ( 'NONE',  ( 0.000000000000000000, 0.000000000000000000, 1.000000000000000000 ) ) ;
#84 = APPROVAL_ROLE ( '' ) ;
#85 = AXIS2_PLACEMENT_3D ( 'NONE', #82, #198, #247 ) ;
#86 = EDGE_CURVE ( 'NONE', #49, #222, #34, .T. ) ;
#87 = COORDINATED_UNIVERSAL_TIME_OFFSET ( 1, 0, .AHEAD. ) ;
#88 = PERSON_AND_ORGANIZATION_ROLE ( 'classification_officer' ) ;
#89 = ADVANCED_FACE ( 'NONE', ( #304 ), #77, .T. ) ;
#90 = APPROVAL_PERSON_ORGANIZATION ( #131, #170, #84 ) ;
#91 = ORIENTED_EDGE ( 'NONE', *, *, #243, .T. ) ;
#92 = EDGE_CURVE ( 'NONE', #56, #140, #72, .T. ) ;
#93 = CIRCLE ( 'NONE', #306, 3.299999999999999822 ) ;
#94 = CARTESIAN_POINT ( 'NONE',  ( 0.000000000000000000, 0.000000000000000000, 5.000000000000000000 ) ) ;
#95 = ORIENTED_EDGE ( 'NONE', *, *, #10, .F. ) ;
#96 = DIRECTION ( 'NONE',  ( 1.000000000000000000, 0.000000000000000000, 0.000000000000000000 ) ) ;
#97 = ORIENTED_EDGE ( 'NONE', *, *, #239, .F. ) ;
#98 = DIRECTION ( 'NONE',  ( 0.000000000000000000, 0.000000000000000000, 1.000000000000000000 ) ) ;
#99 = ORIENTED_EDGE ( 'NONE', *, *, #10, .T. ) ;
#100 = DIRECTION ( 'NONE',  ( -0.000000000000000000, -0.000000000000000000, -1.000000000000000000 ) ) ;
#101 = ADVANCED_FACE ( 'NONE', ( #58, #150 ), #267, .T. ) ;
#102 =( NAMED_UNIT ( * ) PLANE_ANGLE_UNIT ( ) SI_UNIT ( $, .RADIAN. ) );
#103 = VERTEX_POINT ( 'NONE', #268 ) ;
#104 = APPLICATION_CONTEXT ( 'configuration controlled 3d designs of mechanical parts and assemblies' ) ;
#105 = DIRECTION ( 'NONE',  ( -0.000000000000000000, -0.000000000000000000, -1.000000000000000000 ) ) ;
#106 = CARTESIAN_POINT ( 'NONE',  ( 0.000000000000000000, 0.000000000000000000, 5.000000000000000000 ) ) ;
#107 = APPROVAL_ROLE ( '' ) ;
#108 = CC_DESIGN_DATE_AND_TIME_ASSIGNMENT ( #295, #249, ( #116 ) ) ;
#109 = AXIS2_PLACEMENT_3D ( 'NONE', #51, #123, #187 ) ;
#110 = DATE_AND_TIME ( #37, #28 ) ;
#111 = DIRECTION ( 'NONE',  ( 1.000000000000000000, 0.000000000000000000, 0.000000000000000000 ) ) ;
#112 = DIRECTION ( 'NONE',  ( 0.000000000000000000, 0.000000000000000000, 1.000000000000000000 ) ) ;
#113 = PERSON_AND_ORGANIZATION_ROLE ( 'design_owner' ) ;
#114 = ORIENTED_EDGE ( 'NONE', *, *, #276, .F. ) ;
#115 = DESIGN_CONTEXT ( 'detailed design', #104, 'design' ) ;
#116 = PRODUCT_DEFINITION ( 'NEZNÁMÝ', '', #161, #115 ) ;
#117 = CYLINDRICAL_SURFACE ( 'NONE', #209, 3.100000000000000089 ) ;
#118 = DIRECTION ( 'NONE',  ( 1.000000000000000000, 0.000000000000000000, 0.000000000000000000 ) ) ;
#119 = ORIENTED_EDGE ( 'NONE', *, *, #20, .T. ) ;
#120 = DIRECTION ( 'NONE',  ( 0.000000000000000000, 0.000000000000000000, 1.000000000000000000 ) ) ;
#121 = LINE ( 'NONE', #216, #171 ) ;
#122 = AXIS2_PLACEMENT_3D ( 'NONE', #280, #149, #7 ) ;
#123 = DIRECTION ( 'NONE',  ( -0.000000000000000000, -0.000000000000000000, -1.000000000000000000 ) ) ;
#124 = FACE_OUTER_BOUND ( 'NONE', #212, .T. ) ;
#125 = ORIENTED_EDGE ( 'NONE', *, *, #74, .F. ) ;
#126 = DIRECTION ( 'NONE',  ( 0.000000000000000000, 0.000000000000000000, 1.000000000000000000 ) ) ;
#127 = DIRECTION ( 'NONE',  ( 0.000000000000000000, 0.000000000000000000, 1.000000000000000000 ) ) ;
#128 = CARTESIAN_POINT ( 'NONE',  ( -3.100000000000000089, 0.000000000000000000, 505.0000000000000000 ) ) ;
#129 = LOCAL_TIME ( 12, 10, 41.00000000000000000, #87 ) ;
#130 = EDGE_CURVE ( 'NONE', #140, #18, #80, .T. ) ;
#131 = PERSON_AND_ORGANIZATION ( #200, #46 ) ;
#132 = COORDINATED_UNIVERSAL_TIME_OFFSET ( 1, 0, .AHEAD. ) ;
#133 = CC_DESIGN_SECURITY_CLASSIFICATION ( #23, ( #161 ) ) ;
#134 = PERSON_AND_ORGANIZATION ( #200, #46 ) ;
#135 = ORIENTED_EDGE ( 'NONE', *, *, #276, .T. ) ;
#136 = APPROVAL_STATUS ( 'not_yet_approved' ) ;
#137 = AXIS2_PLACEMENT_3D ( 'NONE', #260, #69, #173 ) ;
#138 = ADVANCED_FACE ( 'NONE', ( #124 ), #196, .T. ) ;
#139 = MANIFOLD_SOLID_BREP ( 'Zaoblit1', #201 ) ;
#140 = VERTEX_POINT ( 'NONE', #19 ) ;
#141 = DIRECTION ( 'NONE',  ( 1.000000000000000000, 0.000000000000000000, -0.000000000000000000 ) ) ;
#142 = CARTESIAN_POINT ( 'NONE',  ( 0.000000000000000000, 0.000000000000000000, 0.000000000000000000 ) ) ;
#143 = LINE ( 'NONE', #169, #277 ) ;
#144 = DIRECTION ( 'NONE',  ( 1.224646799147353207E-16, 1.000000000000000000, -0.000000000000000000 ) ) ;
#145 = CIRCLE ( 'NONE', #287, 3.100000000000000089 ) ;
#146 = VERTEX_POINT ( 'NONE', #128 ) ;
#147 = CC_DESIGN_PERSON_AND_ORGANIZATION_ASSIGNMENT ( #63, #113, ( #154 ) ) ;
#148 = CARTESIAN_POINT ( 'NONE',  ( 3.100000000000000089, 3.796405077356794918E-16, 505.0000000000000000 ) ) ;
#149 = DIRECTION ( 'NONE',  ( -0.000000000000000000, -0.000000000000000000, -1.000000000000000000 ) ) ;
#150 = FACE_OUTER_BOUND ( 'NONE', #238, .T. ) ;
#151 = DIRECTION ( 'NONE',  ( 1.000000000000000000, 0.000000000000000000, 0.000000000000000000 ) ) ;
#152 = CALENDAR_DATE ( 2022, 7, 7 ) ;
#153 = TOROIDAL_SURFACE ( 'NONE', #73, 3.299999999999999822, 0.2000000000000000111 ) ;
#154 = PRODUCT ( 'a185', 'a185', '', ( #13 ) ) ;
#155 = COORDINATED_UNIVERSAL_TIME_OFFSET ( 1, 0, .AHEAD. ) ;
#156 = APPROVAL_DATE_TIME ( #199, #170 ) ;
#157 = AXIS2_PLACEMENT_3D ( 'NONE', #142, #215, #193 ) ;
#158 = APPROVAL_STATUS ( 'not_yet_approved' ) ;
#159 = AXIS2_PLACEMENT_3D ( 'NONE', #32, #83, #118 ) ;
#160 = PRODUCT_RELATED_PRODUCT_CATEGORY ( 'detail', '', ( #154 ) ) ;
#161 = PRODUCT_DEFINITION_FORMATION_WITH_SPECIFIED_SOURCE ( 'LIBOVOLNÝ', '', #154, .NOT_KNOWN. ) ;
#162 = APPROVAL ( #158, 'NEURÈENÝ' ) ;
#163 = DIRECTION ( 'NONE',  ( 0.000000000000000000, 0.000000000000000000, 1.000000000000000000 ) ) ;
#164 = ORIENTED_EDGE ( 'NONE', *, *, #208, .F. ) ;
#165 = DIRECTION ( 'NONE',  ( 0.000000000000000000, 0.000000000000000000, 1.000000000000000000 ) ) ;
#166 = CARTESIAN_POINT ( 'NONE',  ( 3.100000000000000089, 3.796405077356794918E-16, 505.0000000000000000 ) ) ;
#167 = CC_DESIGN_APPROVAL ( #170, ( #23 ) ) ;
#168 = CARTESIAN_POINT ( 'NONE',  ( 0.000000000000000000, 0.000000000000000000, 5.000000000000000000 ) ) ;
#169 = CARTESIAN_POINT ( 'NONE',  ( 6.000000000000000888, 7.347880794884120722E-16, 5.000000000000000000 ) ) ;
#170 = APPROVAL ( #207, 'NEURÈENÝ' ) ;
#171 = VECTOR ( 'NONE', #305, 1000.000000000000000 ) ;
#172 = CARTESIAN_POINT ( 'NONE',  ( 0.000000000000000000, 0.000000000000000000, 505.0000000000000000 ) ) ;
#173 = DIRECTION ( 'NONE',  ( 1.000000000000000000, 0.000000000000000000, 0.000000000000000000 ) ) ;
#174 = CIRCLE ( 'NONE', #65, 3.299999999999999822 ) ;
#175 = CYLINDRICAL_SURFACE ( 'NONE', #109, 6.000000000000000888 ) ;
#176 = CARTESIAN_POINT ( 'NONE',  ( 6.000000000000000888, 7.347880794884120722E-16, 0.000000000000000000 ) ) ;
#177 = APPROVAL_ROLE ( '' ) ;
#178 = PERSON_AND_ORGANIZATION ( #200, #46 ) ;
#179 = AXIS2_PLACEMENT_3D ( 'NONE', #168, #98, #4 ) ;
#180 = DATE_TIME_ROLE ( 'classification_date' ) ;
#181 = ADVANCED_FACE ( 'NONE', ( #237 ), #266, .F. ) ;
#182 = ORIENTED_EDGE ( 'NONE', *, *, #1, .F. ) ;
#183 = ORIENTED_EDGE ( 'NONE', *, *, #92, .F. ) ;
#184 = ADVANCED_FACE ( 'NONE', ( #235 ), #117, .T. ) ;
#185 = FACE_OUTER_BOUND ( 'NONE', #299, .T. ) ;
#186 =( LENGTH_UNIT ( ) NAMED_UNIT ( * ) SI_UNIT ( .MILLI., .METRE. ) );
#187 = DIRECTION ( 'NONE',  ( -1.000000000000000000, 0.000000000000000000, 0.000000000000000000 ) ) ;
#188 = CARTESIAN_POINT ( 'NONE',  ( 0.000000000000000000, 0.000000000000000000, 505.0000000000000000 ) ) ;
#189 = LOCAL_TIME ( 12, 10, 41.00000000000000000, #155 ) ;
#190 = CIRCLE ( 'NONE', #137, 6.000000000000000888 ) ;
#191 = EDGE_CURVE ( 'NONE', #278, #49, #194, .T. ) ;
#192 = EDGE_LOOP ( 'NONE', ( #231, #220 ) ) ;
#193 = DIRECTION ( 'NONE',  ( 1.000000000000000000, 0.000000000000000000, 0.000000000000000000 ) ) ;
#194 = LINE ( 'NONE', #245, #219 ) ;
#195 = CARTESIAN_POINT ( 'NONE',  ( -3.100000000000000089, 0.000000000000000000, 5.199999999999982414 ) ) ;
#196 = CYLINDRICAL_SURFACE ( 'NONE', #85, 3.100000000000000089 ) ;
#197 = APPROVAL_PERSON_ORGANIZATION ( #9, #162, #107 ) ;
#198 = DIRECTION ( 'NONE',  ( -0.000000000000000000, -0.000000000000000000, -1.000000000000000000 ) ) ;
#199 = DATE_AND_TIME ( #226, #202 ) ;
#200 = PERSON ( 'NEURÈENÝ', 'NEURÈENÝ', 'NEURÈENÝ', ('NEURÈENÝ'), ('NEURÈENÝ'), ('NEURÈENÝ') ) ;
#201 = CLOSED_SHELL ( 'NONE', ( #292, #138, #62, #223, #101, #181, #184, #89, #256 ) ) ;
#202 = LOCAL_TIME ( 12, 10, 41.00000000000000000, #132 ) ;
#203 = CC_DESIGN_PERSON_AND_ORGANIZATION_ASSIGNMENT ( #40, #293, ( #116 ) ) ;
#204 = APPROVAL_DATE_TIME ( #253, #162 ) ;
#205 = PERSON_AND_ORGANIZATION_ROLE ( 'creator' ) ;
#206 = AXIS2_PLACEMENT_3D ( 'NONE', #246, #127, #141 ) ;
#207 = APPROVAL_STATUS ( 'not_yet_approved' ) ;
#208 = EDGE_CURVE ( 'NONE', #254, #22, #93, .T. ) ;
#209 = AXIS2_PLACEMENT_3D ( 'NONE', #35, #105, #213 ) ;
#210 = ORIENTED_EDGE ( 'NONE', *, *, #66, .F. ) ;
#211 = ORIENTED_EDGE ( 'NONE', *, *, #191, .T. ) ;
#212 = EDGE_LOOP ( 'NONE', ( #182, #233, #29, #14 ) ) ;
#213 = DIRECTION ( 'NONE',  ( -1.000000000000000000, 0.000000000000000000, 0.000000000000000000 ) ) ;
#214 = APPROVAL_PERSON_ORGANIZATION ( #178, #16, #177 ) ;
#215 = DIRECTION ( 'NONE',  ( 0.000000000000000000, 0.000000000000000000, 1.000000000000000000 ) ) ;
#216 = CARTESIAN_POINT ( 'NONE',  ( -3.100000000000000089, 0.000000000000000000, 505.0000000000000000 ) ) ;
#217 = CC_DESIGN_DATE_AND_TIME_ASSIGNMENT ( #110, #180, ( #23 ) ) ;
#218 = CARTESIAN_POINT ( 'NONE',  ( 3.299999999999999822, 0.000000000000000000, 5.199999999999982414 ) ) ;
#219 = VECTOR ( 'NONE', #290, 1000.000000000000000 ) ;
#220 = ORIENTED_EDGE ( 'NONE', *, *, #1, .T. ) ;
#221 = CARTESIAN_POINT ( 'NONE',  ( -6.000000000000000888, 0.000000000000000000, 5.000000000000000000 ) ) ;
#222 = VERTEX_POINT ( 'NONE', #176 ) ;
#223 = ADVANCED_FACE ( 'NONE', ( #185 ), #71, .T. ) ;
#224 = FACE_OUTER_BOUND ( 'NONE', #265, .T. ) ;
#225 = DIRECTION ( 'NONE',  ( 0.000000000000000000, 0.000000000000000000, 1.000000000000000000 ) ) ;
#226 = CALENDAR_DATE ( 2022, 7, 7 ) ;
#227 = SHAPE_DEFINITION_REPRESENTATION ( #269, #17 ) ;
#228 = AXIS2_PLACEMENT_3D ( 'NONE', #286, #303, #151 ) ;
#229 = EDGE_LOOP ( 'NONE', ( #53, #45, #262, #164 ) ) ;
#230 =( NAMED_UNIT ( * ) SI_UNIT ( $, .STERADIAN. ) SOLID_ANGLE_UNIT ( ) );
#231 = ORIENTED_EDGE ( 'NONE', *, *, #74, .T. ) ;
#232 = ORIENTED_EDGE ( 'NONE', *, *, #66, .T. ) ;
#233 = ORIENTED_EDGE ( 'NONE', *, *, #92, .T. ) ;
#234 = CARTESIAN_POINT ( 'NONE',  ( 0.000000000000000000, 0.000000000000000000, 5.199999999999982414 ) ) ;
#235 = FACE_OUTER_BOUND ( 'NONE', #26, .T. ) ;
#236 = ORIENTED_EDGE ( 'NONE', *, *, #261, .F. ) ;
#237 = FACE_OUTER_BOUND ( 'NONE', #67, .T. ) ;
#238 = EDGE_LOOP ( 'NONE', ( #99, #135 ) ) ;
#239 = EDGE_CURVE ( 'NONE', #22, #254, #174, .T. ) ;
#240 = ORIENTED_EDGE ( 'NONE', *, *, #208, .T. ) ;
#241 = CARTESIAN_POINT ( 'NONE',  ( 0.000000000000000000, 0.000000000000000000, 505.0000000000000000 ) ) ;
#242 = CC_DESIGN_APPROVAL ( #162, ( #116 ) ) ;
#243 = EDGE_CURVE ( 'NONE', #18, #140, #273, .T. ) ;
#244 = ORIENTED_EDGE ( 'NONE', *, *, #42, .F. ) ;
#245 = CARTESIAN_POINT ( 'NONE',  ( -6.000000000000000888, 0.000000000000000000, 5.000000000000000000 ) ) ;
#246 = CARTESIAN_POINT ( 'NONE',  ( 0.000000000000000000, 0.000000000000000000, 5.000000000000000000 ) ) ;
#247 = DIRECTION ( 'NONE',  ( -1.000000000000000000, 0.000000000000000000, 0.000000000000000000 ) ) ;
#248 = COORDINATED_UNIVERSAL_TIME_OFFSET ( 1, 0, .AHEAD. ) ;
#249 = DATE_TIME_ROLE ( 'creation_date' ) ;
#250 = CIRCLE ( 'NONE', #297, 0.1999999999999996503 ) ;
#251 = CALENDAR_DATE ( 2022, 7, 7 ) ;
#252 = AXIS2_PLACEMENT_3D ( 'NONE', #52, #126, #59 ) ;
#253 = DATE_AND_TIME ( #36, #189 ) ;
#254 = VERTEX_POINT ( 'NONE', #291 ) ;
#255 = AXIS2_PLACEMENT_3D ( 'NONE', #275, #112, #111 ) ;
#256 = ADVANCED_FACE ( 'NONE', ( #24 ), #298, .F. ) ;
#257 = DIRECTION ( 'NONE',  ( 1.000000000000000000, 0.000000000000000000, -0.000000000000000000 ) ) ;
#258 = EDGE_LOOP ( 'NONE', ( #114, #232, #70, #54 ) ) ;
#259 = DIRECTION ( 'NONE',  ( 1.000000000000000000, 0.000000000000000000, 0.000000000000000000 ) ) ;
#260 = CARTESIAN_POINT ( 'NONE',  ( 0.000000000000000000, 0.000000000000000000, 0.000000000000000000 ) ) ;
#261 = EDGE_CURVE ( 'NONE', #222, #49, #190, .T. ) ;
#262 = ORIENTED_EDGE ( 'NONE', *, *, #42, .T. ) ;
#263 = DIRECTION ( 'NONE',  ( 1.000000000000000000, 0.000000000000000000, 0.000000000000000000 ) ) ;
#264 = DIRECTION ( 'NONE',  ( -1.000000000000000000, 1.224646799147353207E-16, 0.000000000000000000 ) ) ;
#265 = EDGE_LOOP ( 'NONE', ( #55, #119, #97, #244 ) ) ;
#266 = PLANE ( 'NONE',  #283 ) ;
#267 = PLANE ( 'NONE',  #206 ) ;
#268 = CARTESIAN_POINT ( 'NONE',  ( 6.000000000000000888, 7.347880794884120722E-16, 5.000000000000000000 ) ) ;
#269 = PRODUCT_DEFINITION_SHAPE ( 'NONE', 'NONE',  #116 ) ;
#270 = DATE_AND_TIME ( #152, #129 ) ;
#271 = CIRCLE ( 'NONE', #179, 6.000000000000000888 ) ;
#272 = CC_DESIGN_PERSON_AND_ORGANIZATION_ASSIGNMENT ( #274, #88, ( #23 ) ) ;
#273 = CIRCLE ( 'NONE', #301, 3.100000000000000089 ) ;
#274 = PERSON_AND_ORGANIZATION ( #200, #46 ) ;
#275 = CARTESIAN_POINT ( 'NONE',  ( 0.000000000000000000, 0.000000000000000000, 0.000000000000000000 ) ) ;
#276 = EDGE_CURVE ( 'NONE', #103, #278, #15, .T. ) ;
#277 = VECTOR ( 'NONE', #100, 1000.000000000000000 ) ;
#278 = VERTEX_POINT ( 'NONE', #221 ) ;
#279 = DIRECTION ( 'NONE',  ( 1.000000000000000000, 0.000000000000000000, 0.000000000000000000 ) ) ;
#280 = CARTESIAN_POINT ( 'NONE',  ( 0.000000000000000000, 0.000000000000000000, 5.000000000000000000 ) ) ;
#281 = DIRECTION ( 'NONE',  ( 0.000000000000000000, 0.000000000000000000, 1.000000000000000000 ) ) ;
#282 = CARTESIAN_POINT ( 'NONE',  ( 3.299999999999999822, 0.000000000000000000, 4.999999999999991118 ) ) ;
#283 = AXIS2_PLACEMENT_3D ( 'NONE', #302, #225, #257 ) ;
#284 = ORIENTED_EDGE ( 'NONE', *, *, #6, .T. ) ;
#285 = ORIENTED_EDGE ( 'NONE', *, *, #86, .F. ) ;
#286 = CARTESIAN_POINT ( 'NONE',  ( 0.000000000000000000, 0.000000000000000000, 5.199999999999982414 ) ) ;
#287 = AXIS2_PLACEMENT_3D ( 'NONE', #188, #281, #263 ) ;
#288 = CARTESIAN_POINT ( 'NONE',  ( -3.299999999999999822, 4.041334437186265510E-16, 5.199999999999982414 ) ) ;
#289 =( GEOMETRIC_REPRESENTATION_CONTEXT ( 3 ) GLOBAL_UNCERTAINTY_ASSIGNED_CONTEXT ( ( #44 ) ) GLOBAL_UNIT_ASSIGNED_CONTEXT ( ( #186, #102, #230 ) ) REPRESENTATION_CONTEXT ( 'NONE', 'WORKASPACE' ) );
#290 = DIRECTION ( 'NONE',  ( -0.000000000000000000, -0.000000000000000000, -1.000000000000000000 ) ) ;
#291 = CARTESIAN_POINT ( 'NONE',  ( -3.299999999999999822, 4.041334437186265510E-16, 4.999999999999991118 ) ) ;
#292 = ADVANCED_FACE ( 'NONE', ( #224 ), #153, .F. ) ;
#293 = PERSON_AND_ORGANIZATION_ROLE ( 'creator' ) ;
#294 = LOCAL_TIME ( 12, 10, 41.00000000000000000, #12 ) ;
#295 = DATE_AND_TIME ( #251, #294 ) ;
#296 = PERSON_AND_ORGANIZATION ( #200, #46 ) ;
#297 = AXIS2_PLACEMENT_3D ( 'NONE', #218, #81, #307 ) ;
#298 = TOROIDAL_SURFACE ( 'NONE', #159, 3.299999999999999822, 0.2000000000000000111 ) ;
#299 = EDGE_LOOP ( 'NONE', ( #210, #95, #211, #2 ) ) ;
#300 = AXIS2_PLACEMENT_3D ( 'NONE', #241, #27, #31 ) ;
#301 = AXIS2_PLACEMENT_3D ( 'NONE', #50, #165, #79 ) ;
#302 = CARTESIAN_POINT ( 'NONE',  ( 0.000000000000000000, 0.000000000000000000, 0.000000000000000000 ) ) ;
#303 = DIRECTION ( 'NONE',  ( 0.000000000000000000, 0.000000000000000000, 1.000000000000000000 ) ) ;
#304 = FACE_OUTER_BOUND ( 'NONE', #192, .T. ) ;
#305 = DIRECTION ( 'NONE',  ( -0.000000000000000000, -0.000000000000000000, -1.000000000000000000 ) ) ;
#306 = AXIS2_PLACEMENT_3D ( 'NONE', #94, #3, #96 ) ;
#307 = DIRECTION ( 'NONE',  ( 0.000000000000000000, 0.000000000000000000, -1.000000000000000000 ) ) ;
ENDSEC;
END-ISO-10303-21;
