ISO-10303-21;
HEADER;
FILE_DESCRIPTION (( 'STEP AP203' ),
    '1' );
FILE_NAME ('24dd.STEP',
    '2022-07-07T10:07:49',
    ( '' ),
    ( '' ),
    'SwSTEP 2.0',
    'SolidWorks 2019',
    '' );
FILE_SCHEMA (( 'CONFIG_CONTROL_DESIGN' ));
ENDSEC;

DATA;
#1 = APPLICATION_PROTOCOL_DEFINITION ( 'international standard', 'config_control_design', 1994, #170 ) ;
#2 = PRODUCT_DEFINITION_SHAPE ( 'NONE', 'NONE',  #169 ) ;
#3 = DIRECTION ( 'NONE',  ( 1.000000000000000000, 0.000000000000000000, 0.000000000000000000 ) ) ;
#4 = AXIS2_PLACEMENT_3D ( 'NONE', #143, #261, #262 ) ;
#5 = DIRECTION ( 'NONE',  ( -1.000000000000000000, 0.000000000000000000, 0.000000000000000000 ) ) ;
#6 = DATE_AND_TIME ( #273, #127 ) ;
#7 = APPROVAL_STATUS ( 'not_yet_approved' ) ;
#8 = EDGE_LOOP ( 'NONE', ( #228, #108 ) ) ;
#9 = CLOSED_SHELL ( 'NONE', ( #136, #102, #238, #163, #149, #191, #193, #298, #265 ) ) ;
#10 = LOCAL_TIME ( 12, 7, 49.00000000000000000, #174 ) ;
#11 = VERTEX_POINT ( 'NONE', #257 ) ;
#12 = PERSON_AND_ORGANIZATION_ROLE ( 'design_owner' ) ;
#13 = EDGE_LOOP ( 'NONE', ( #155, #244 ) ) ;
#14 = ORIENTED_EDGE ( 'NONE', *, *, #64, .T. ) ;
#15 = AXIS2_PLACEMENT_3D ( 'NONE', #137, #113, #140 ) ;
#16 = EDGE_LOOP ( 'NONE', ( #176, #290, #293, #181 ) ) ;
#17 = CYLINDRICAL_SURFACE ( 'NONE', #237, 6.000000000000000888 ) ;
#18 = EDGE_CURVE ( 'NONE', #274, #79, #86, .T. ) ;
#19 = CARTESIAN_POINT ( 'NONE',  ( 0.000000000000000000, 0.000000000000000000, 0.000000000000000000 ) ) ;
#20 = DIRECTION ( 'NONE',  ( -0.000000000000000000, -0.000000000000000000, -1.000000000000000000 ) ) ;
#21 = FACE_BOUND ( 'NONE', #151, .T. ) ;
#22 =( LENGTH_UNIT ( ) NAMED_UNIT ( * ) SI_UNIT ( .MILLI., .METRE. ) );
#23 = AXIS2_PLACEMENT_3D ( 'NONE', #115, #213, #5 ) ;
#24 = CYLINDRICAL_SURFACE ( 'NONE', #23, 3.500000000000000000 ) ;
#25 = EDGE_CURVE ( 'NONE', #11, #253, #167, .T. ) ;
#26 = CARTESIAN_POINT ( 'NONE',  ( 0.000000000000000000, 0.000000000000000000, 5.200000000000009948 ) ) ;
#27 = DIRECTION ( 'NONE',  ( -0.000000000000000000, -0.000000000000000000, -1.000000000000000000 ) ) ;
#28 = PERSON_AND_ORGANIZATION ( #272, #229 ) ;
#29 = MECHANICAL_CONTEXT ( 'NONE', #170, 'mechanical' ) ;
#30 = APPLICATION_CONTEXT ( 'configuration controlled 3d designs of mechanical parts and assemblies' ) ;
#31 = APPLICATION_PROTOCOL_DEFINITION ( 'international standard', 'config_control_design', 1994, #30 ) ;
#32 = TOROIDAL_SURFACE ( 'NONE', #100, 3.700000000000000178, 0.2000000000000000111 ) ;
#33 = AXIS2_PLACEMENT_3D ( 'NONE', #234, #306, #259 ) ;
#34 = SECURITY_CLASSIFICATION_LEVEL ( 'unclassified' ) ;
#35 = APPROVAL ( #103, 'NEURÈENÝ' ) ;
#36 = ORIENTED_EDGE ( 'NONE', *, *, #248, .T. ) ;
#37 = PRODUCT_RELATED_PRODUCT_CATEGORY ( 'detail', '', ( #47 ) ) ;
#38 = DIRECTION ( 'NONE',  ( 0.000000000000000000, -1.000000000000000000, 0.000000000000000000 ) ) ;
#39 = EDGE_CURVE ( 'NONE', #55, #180, #212, .T. ) ;
#40 = CARTESIAN_POINT ( 'NONE',  ( 0.000000000000000000, 0.000000000000000000, 0.000000000000000000 ) ) ;
#41 = DIRECTION ( 'NONE',  ( 0.000000000000000000, 0.000000000000000000, 1.000000000000000000 ) ) ;
#42 = VECTOR ( 'NONE', #20, 1000.000000000000000 ) ;
#43 = DIRECTION ( 'NONE',  ( 1.000000000000000000, 0.000000000000000000, 0.000000000000000000 ) ) ;
#44 = DIRECTION ( 'NONE',  ( -0.000000000000000000, -0.000000000000000000, -1.000000000000000000 ) ) ;
#45 = SECURITY_CLASSIFICATION ( '', '', #34 ) ;
#46 = CARTESIAN_POINT ( 'NONE',  ( 0.000000000000000000, 0.000000000000000000, 165.0000000000000000 ) ) ;
#47 = PRODUCT ( '24dd', '24dd', '', ( #29 ) ) ;
#48 = EDGE_CURVE ( 'NONE', #131, #11, #242, .T. ) ;
#49 = FACE_OUTER_BOUND ( 'NONE', #60, .T. ) ;
#50 = DIRECTION ( 'NONE',  ( 1.000000000000000000, 0.000000000000000000, 0.000000000000000000 ) ) ;
#51 = CARTESIAN_POINT ( 'NONE',  ( 3.700000000000000178, 0.000000000000000000, 5.000000000000005329 ) ) ;
#52 = CIRCLE ( 'NONE', #247, 6.000000000000000888 ) ;
#53 = EDGE_CURVE ( 'NONE', #131, #201, #291, .T. ) ;
#54 = COORDINATED_UNIVERSAL_TIME_OFFSET ( 1, 0, .AHEAD. ) ;
#55 = VERTEX_POINT ( 'NONE', #255 ) ;
#56 = EDGE_LOOP ( 'NONE', ( #246, #14, #178, #77 ) ) ;
#57 = CALENDAR_DATE ( 2022, 7, 7 ) ;
#58 = AXIS2_PLACEMENT_3D ( 'NONE', #139, #235, #65 ) ;
#59 = APPROVAL_DATE_TIME ( #6, #287 ) ;
#60 = EDGE_LOOP ( 'NONE', ( #160, #252, #198, #104 ) ) ;
#61 = FACE_OUTER_BOUND ( 'NONE', #56, .T. ) ;
#62 = DIRECTION ( 'NONE',  ( -1.000000000000000000, 1.224646799147350742E-16, 0.000000000000000000 ) ) ;
#63 = CYLINDRICAL_SURFACE ( 'NONE', #15, 3.500000000000000000 ) ;
#64 = EDGE_CURVE ( 'NONE', #79, #131, #204, .T. ) ;
#65 = DIRECTION ( 'NONE',  ( 1.000000000000000000, 0.000000000000000000, 0.000000000000000000 ) ) ;
#66 = AXIS2_PLACEMENT_3D ( 'NONE', #19, #41, #43 ) ;
#67 = ORIENTED_EDGE ( 'NONE', *, *, #18, .T. ) ;
#68 = DIRECTION ( 'NONE',  ( 1.000000000000000000, 0.000000000000000000, 0.000000000000000000 ) ) ;
#69 = CARTESIAN_POINT ( 'NONE',  ( -3.700000000000000178, 4.531193156845206201E-16, 5.000000000000005329 ) ) ;
#70 = VECTOR ( 'NONE', #266, 1000.000000000000000 ) ;
#71 = CARTESIAN_POINT ( 'NONE',  ( 0.000000000000000000, 0.000000000000000000, 5.000000000000000000 ) ) ;
#72 = DIRECTION ( 'NONE',  ( 0.000000000000000000, 0.000000000000000000, 1.000000000000000000 ) ) ;
#73 = PERSON_AND_ORGANIZATION_ROLE ( 'creator' ) ;
#74 = UNCERTAINTY_MEASURE_WITH_UNIT (LENGTH_MEASURE( 1.000000000000000082E-05 ), #22, 'distance_accuracy_value', 'NONE');
#75 = VECTOR ( 'NONE', #203, 1000.000000000000000 ) ;
#76 = VERTEX_POINT ( 'NONE', #301 ) ;
#77 = ORIENTED_EDGE ( 'NONE', *, *, #154, .F. ) ;
#78 = DATE_AND_TIME ( #249, #10 ) ;
#79 = VERTEX_POINT ( 'NONE', #89 ) ;
#80 = PERSON_AND_ORGANIZATION ( #272, #229 ) ;
#81 = EDGE_LOOP ( 'NONE', ( #250, #300, #148, #83 ) ) ;
#82 = APPROVAL_STATUS ( 'not_yet_approved' ) ;
#83 = ORIENTED_EDGE ( 'NONE', *, *, #219, .F. ) ;
#84 = DIRECTION ( 'NONE',  ( 1.000000000000000000, 0.000000000000000000, 0.000000000000000000 ) ) ;
#85 = CARTESIAN_POINT ( 'NONE',  ( 6.000000000000000888, 7.347880794884120722E-16, 0.000000000000000000 ) ) ;
#86 = CIRCLE ( 'NONE', #126, 3.500000000000000000 ) ;
#87 = CC_DESIGN_APPROVAL ( #202, ( #120 ) ) ;
#88 = CARTESIAN_POINT ( 'NONE',  ( 3.500000000000000000, 4.286263797015736595E-16, 5.200000000000009948 ) ) ;
#89 = CARTESIAN_POINT ( 'NONE',  ( 3.500000000000000000, 4.286263797015736595E-16, 165.0000000000000000 ) ) ;
#90 = EDGE_CURVE ( 'NONE', #11, #131, #111, .T. ) ;
#91 = LINE ( 'NONE', #185, #107 ) ;
#92 = LOCAL_TIME ( 12, 7, 49.00000000000000000, #221 ) ;
#93 =( NAMED_UNIT ( * ) SI_UNIT ( $, .STERADIAN. ) SOLID_ANGLE_UNIT ( ) );
#94 = FACE_OUTER_BOUND ( 'NONE', #158, .T. ) ;
#95 = CIRCLE ( 'NONE', #205, 6.000000000000000888 ) ;
#96 = FACE_OUTER_BOUND ( 'NONE', #175, .T. ) ;
#97 = DIRECTION ( 'NONE',  ( 1.000000000000000000, 0.000000000000000000, 0.000000000000000000 ) ) ;
#98 = APPROVAL_DATE_TIME ( #78, #202 ) ;
#99 = PERSON_AND_ORGANIZATION_ROLE ( 'creator' ) ;
#100 = AXIS2_PLACEMENT_3D ( 'NONE', #26, #285, #118 ) ;
#101 = ORIENTED_EDGE ( 'NONE', *, *, #159, .F. ) ;
#102 = ADVANCED_FACE ( 'NONE', ( #61 ), #63, .T. ) ;
#103 = APPROVAL_STATUS ( 'not_yet_approved' ) ;
#104 = ORIENTED_EDGE ( 'NONE', *, *, #90, .T. ) ;
#105 = DATE_AND_TIME ( #57, #258 ) ;
#106 = ORIENTED_EDGE ( 'NONE', *, *, #270, .T. ) ;
#107 = VECTOR ( 'NONE', #109, 1000.000000000000000 ) ;
#108 = ORIENTED_EDGE ( 'NONE', *, *, #230, .F. ) ;
#109 = DIRECTION ( 'NONE',  ( -0.000000000000000000, -0.000000000000000000, -1.000000000000000000 ) ) ;
#110 = CARTESIAN_POINT ( 'NONE',  ( 0.000000000000000000, 0.000000000000000000, 165.0000000000000000 ) ) ;
#111 = CIRCLE ( 'NONE', #233, 3.500000000000000000 ) ;
#112 = CARTESIAN_POINT ( 'NONE',  ( -3.700000000000000178, 4.531193156845206201E-16, 5.200000000000009948 ) ) ;
#113 = DIRECTION ( 'NONE',  ( -0.000000000000000000, -0.000000000000000000, -1.000000000000000000 ) ) ;
#114 = CC_DESIGN_DATE_AND_TIME_ASSIGNMENT ( #105, #124, ( #169 ) ) ;
#115 = CARTESIAN_POINT ( 'NONE',  ( 0.000000000000000000, 0.000000000000000000, 165.0000000000000000 ) ) ;
#116 = AXIS2_PLACEMENT_3D ( 'NONE', #144, #121, #192 ) ;
#117 = PLANE ( 'NONE',  #116 ) ;
#118 = DIRECTION ( 'NONE',  ( 1.000000000000000000, 0.000000000000000000, 0.000000000000000000 ) ) ;
#119 = CARTESIAN_POINT ( 'NONE',  ( -3.500000000000000000, 0.000000000000000000, 165.0000000000000000 ) ) ;
#120 = PRODUCT_DEFINITION_FORMATION_WITH_SPECIFIED_SOURCE ( 'LIBOVOLNÝ', '', #47, .NOT_KNOWN. ) ;
#121 = DIRECTION ( 'NONE',  ( 0.000000000000000000, 0.000000000000000000, 1.000000000000000000 ) ) ;
#122 = CALENDAR_DATE ( 2022, 7, 7 ) ;
#123 = CC_DESIGN_PERSON_AND_ORGANIZATION_ASSIGNMENT ( #199, #196, ( #120 ) ) ;
#124 = DATE_TIME_ROLE ( 'creation_date' ) ;
#125 = PERSON_AND_ORGANIZATION ( #272, #229 ) ;
#126 = AXIS2_PLACEMENT_3D ( 'NONE', #110, #256, #84 ) ;
#127 = LOCAL_TIME ( 12, 7, 49.00000000000000000, #54 ) ;
#128 = ORIENTED_EDGE ( 'NONE', *, *, #282, .F. ) ;
#129 = COORDINATED_UNIVERSAL_TIME_OFFSET ( 1, 0, .AHEAD. ) ;
#130 = ORIENTED_EDGE ( 'NONE', *, *, #219, .T. ) ;
#131 = VERTEX_POINT ( 'NONE', #88 ) ;
#132 = ORIENTED_EDGE ( 'NONE', *, *, #39, .T. ) ;
#133 = PLANE ( 'NONE',  #33 ) ;
#134 = ADVANCED_BREP_SHAPE_REPRESENTATION ( '24dd', ( #208, #216 ), #138 ) ;
#135 = DIRECTION ( 'NONE',  ( 0.000000000000000000, 0.000000000000000000, 1.000000000000000000 ) ) ;
#136 = ADVANCED_FACE ( 'NONE', ( #156 ), #267, .F. ) ;
#137 = CARTESIAN_POINT ( 'NONE',  ( 0.000000000000000000, 0.000000000000000000, 165.0000000000000000 ) ) ;
#138 =( GEOMETRIC_REPRESENTATION_CONTEXT ( 3 ) GLOBAL_UNCERTAINTY_ASSIGNED_CONTEXT ( ( #74 ) ) GLOBAL_UNIT_ASSIGNED_CONTEXT ( ( #22, #217, #93 ) ) REPRESENTATION_CONTEXT ( 'NONE', 'WORKASPACE' ) );
#139 = CARTESIAN_POINT ( 'NONE',  ( 0.000000000000000000, 0.000000000000000000, 5.200000000000009948 ) ) ;
#140 = DIRECTION ( 'NONE',  ( -1.000000000000000000, 0.000000000000000000, 0.000000000000000000 ) ) ;
#141 = APPROVAL_PERSON_ORGANIZATION ( #179, #35, #271 ) ;
#142 = DIRECTION ( 'NONE',  ( -0.000000000000000000, -0.000000000000000000, -1.000000000000000000 ) ) ;
#143 = CARTESIAN_POINT ( 'NONE',  ( 0.000000000000000000, 0.000000000000000000, 0.000000000000000000 ) ) ;
#144 = CARTESIAN_POINT ( 'NONE',  ( 0.000000000000000000, 0.000000000000000000, 165.0000000000000000 ) ) ;
#145 = AXIS2_PLACEMENT_3D ( 'NONE', #46, #241, #214 ) ;
#146 = DIRECTION ( 'NONE',  ( -1.000000000000000000, 0.000000000000000000, 0.000000000000000000 ) ) ;
#147 = DIRECTION ( 'NONE',  ( 1.000000000000000000, 0.000000000000000000, 0.000000000000000000 ) ) ;
#148 = ORIENTED_EDGE ( 'NONE', *, *, #53, .T. ) ;
#149 = ADVANCED_FACE ( 'NONE', ( #21, #161 ), #133, .T. ) ;
#150 = APPROVAL_DATE_TIME ( #194, #35 ) ;
#151 = EDGE_LOOP ( 'NONE', ( #223, #130 ) ) ;
#152 = PERSON_AND_ORGANIZATION ( #272, #229 ) ;
#153 = PERSON_AND_ORGANIZATION ( #272, #229 ) ;
#154 = EDGE_CURVE ( 'NONE', #274, #11, #91, .T. ) ;
#155 = ORIENTED_EDGE ( 'NONE', *, *, #279, .T. ) ;
#156 = FACE_OUTER_BOUND ( 'NONE', #16, .T. ) ;
#157 = CIRCLE ( 'NONE', #195, 3.700000000000000178 ) ;
#158 = EDGE_LOOP ( 'NONE', ( #128, #269, #197, #296 ) ) ;
#159 = EDGE_CURVE ( 'NONE', #76, #180, #231, .T. ) ;
#160 = ORIENTED_EDGE ( 'NONE', *, *, #64, .F. ) ;
#161 = FACE_OUTER_BOUND ( 'NONE', #13, .T. ) ;
#162 = CIRCLE ( 'NONE', #307, 3.700000000000000178 ) ;
#163 = ADVANCED_FACE ( 'NONE', ( #281 ), #17, .T. ) ;
#164 = CARTESIAN_POINT ( 'NONE',  ( 0.000000000000000000, 0.000000000000000000, 5.000000000000000000 ) ) ;
#165 = CARTESIAN_POINT ( 'NONE',  ( 0.000000000000000000, 0.000000000000000000, 5.000000000000000000 ) ) ;
#166 = CARTESIAN_POINT ( 'NONE',  ( -6.000000000000000888, 0.000000000000000000, 5.000000000000000000 ) ) ;
#167 = CIRCLE ( 'NONE', #168, 0.2000000000000000944 ) ;
#168 = AXIS2_PLACEMENT_3D ( 'NONE', #112, #182, #62 ) ;
#169 = PRODUCT_DEFINITION ( 'NEZNÁMÝ', '', #120, #222 ) ;
#170 = APPLICATION_CONTEXT ( 'configuration controlled 3d designs of mechanical parts and assemblies' ) ;
#171 = CC_DESIGN_SECURITY_CLASSIFICATION ( #45, ( #120 ) ) ;
#172 = AXIS2_PLACEMENT_3D ( 'NONE', #207, #260, #305 ) ;
#173 = CC_DESIGN_PERSON_AND_ORGANIZATION_ASSIGNMENT ( #28, #295, ( #45 ) ) ;
#174 = COORDINATED_UNIVERSAL_TIME_OFFSET ( 1, 0, .AHEAD. ) ;
#175 = EDGE_LOOP ( 'NONE', ( #67, #106 ) ) ;
#176 = ORIENTED_EDGE ( 'NONE', *, *, #90, .F. ) ;
#177 = DATE_AND_TIME ( #122, #224 ) ;
#178 = ORIENTED_EDGE ( 'NONE', *, *, #48, .T. ) ;
#179 = PERSON_AND_ORGANIZATION ( #272, #229 ) ;
#180 = VERTEX_POINT ( 'NONE', #85 ) ;
#181 = ORIENTED_EDGE ( 'NONE', *, *, #53, .F. ) ;
#182 = DIRECTION ( 'NONE',  ( 1.224646799147353207E-16, 1.000000000000000000, -0.000000000000000000 ) ) ;
#183 = FACE_OUTER_BOUND ( 'NONE', #8, .T. ) ;
#184 = CC_DESIGN_APPROVAL ( #35, ( #169 ) ) ;
#185 = CARTESIAN_POINT ( 'NONE',  ( -3.500000000000000000, 0.000000000000000000, 165.0000000000000000 ) ) ;
#186 = DIRECTION ( 'NONE',  ( 0.000000000000000000, 0.000000000000000000, -1.000000000000000000 ) ) ;
#187 = CARTESIAN_POINT ( 'NONE',  ( 6.000000000000000888, 7.347880794884120722E-16, 5.000000000000000000 ) ) ;
#188 = AXIS2_PLACEMENT_3D ( 'NONE', #71, #27, #146 ) ;
#189 = CARTESIAN_POINT ( 'NONE',  ( 0.000000000000000000, 0.000000000000000000, 5.000000000000000000 ) ) ;
#190 = CYLINDRICAL_SURFACE ( 'NONE', #188, 6.000000000000000888 ) ;
#191 = ADVANCED_FACE ( 'NONE', ( #183 ), #277, .F. ) ;
#192 = DIRECTION ( 'NONE',  ( 1.000000000000000000, 0.000000000000000000, -0.000000000000000000 ) ) ;
#193 = ADVANCED_FACE ( 'NONE', ( #49 ), #24, .T. ) ;
#194 = DATE_AND_TIME ( #243, #92 ) ;
#195 = AXIS2_PLACEMENT_3D ( 'NONE', #264, #142, #3 ) ;
#196 = PERSON_AND_ORGANIZATION_ROLE ( 'design_supplier' ) ;
#197 = ORIENTED_EDGE ( 'NONE', *, *, #230, .T. ) ;
#198 = ORIENTED_EDGE ( 'NONE', *, *, #154, .T. ) ;
#199 = PERSON_AND_ORGANIZATION ( #272, #229 ) ;
#200 = AXIS2_PLACEMENT_3D ( 'NONE', #206, #38, #186 ) ;
#201 = VERTEX_POINT ( 'NONE', #51 ) ;
#202 = APPROVAL ( #7, 'NEURÈENÝ' ) ;
#203 = DIRECTION ( 'NONE',  ( -0.000000000000000000, -0.000000000000000000, -1.000000000000000000 ) ) ;
#204 = LINE ( 'NONE', #209, #75 ) ;
#205 = AXIS2_PLACEMENT_3D ( 'NONE', #288, #72, #50 ) ;
#206 = CARTESIAN_POINT ( 'NONE',  ( 3.700000000000000178, 0.000000000000000000, 5.200000000000009948 ) ) ;
#207 = CARTESIAN_POINT ( 'NONE',  ( 0.000000000000000000, 0.000000000000000000, 5.200000000000009948 ) ) ;
#208 = MANIFOLD_SOLID_BREP ( 'Zaoblit1', #9 ) ;
#209 = CARTESIAN_POINT ( 'NONE',  ( 3.500000000000000000, 4.286263797015736595E-16, 165.0000000000000000 ) ) ;
#210 = CC_DESIGN_PERSON_AND_ORGANIZATION_ASSIGNMENT ( #125, #99, ( #120 ) ) ;
#211 = CARTESIAN_POINT ( 'NONE',  ( -6.000000000000000888, 0.000000000000000000, 5.000000000000000000 ) ) ;
#212 = CIRCLE ( 'NONE', #66, 6.000000000000000888 ) ;
#213 = DIRECTION ( 'NONE',  ( -0.000000000000000000, -0.000000000000000000, -1.000000000000000000 ) ) ;
#214 = DIRECTION ( 'NONE',  ( 1.000000000000000000, 0.000000000000000000, 0.000000000000000000 ) ) ;
#215 = DIRECTION ( 'NONE',  ( 0.000000000000000000, 0.000000000000000000, 1.000000000000000000 ) ) ;
#216 = AXIS2_PLACEMENT_3D ( 'NONE', #284, #225, #147 ) ;
#217 =( NAMED_UNIT ( * ) PLANE_ANGLE_UNIT ( ) SI_UNIT ( $, .RADIAN. ) );
#218 = CC_DESIGN_DATE_AND_TIME_ASSIGNMENT ( #177, #220, ( #45 ) ) ;
#219 = EDGE_CURVE ( 'NONE', #253, #201, #162, .T. ) ;
#220 = DATE_TIME_ROLE ( 'classification_date' ) ;
#221 = COORDINATED_UNIVERSAL_TIME_OFFSET ( 1, 0, .AHEAD. ) ;
#222 = DESIGN_CONTEXT ( 'detailed design', #30, 'design' ) ;
#223 = ORIENTED_EDGE ( 'NONE', *, *, #292, .T. ) ;
#224 = LOCAL_TIME ( 12, 7, 49.00000000000000000, #299 ) ;
#225 = DIRECTION ( 'NONE',  ( 0.000000000000000000, 0.000000000000000000, 1.000000000000000000 ) ) ;
#226 = CC_DESIGN_PERSON_AND_ORGANIZATION_ASSIGNMENT ( #153, #12, ( #47 ) ) ;
#227 = EDGE_LOOP ( 'NONE', ( #101, #275, #36, #132 ) ) ;
#228 = ORIENTED_EDGE ( 'NONE', *, *, #39, .F. ) ;
#229 = ORGANIZATION ( 'NEURÈENÝ', 'NEURÈENÝ', '' ) ;
#230 = EDGE_CURVE ( 'NONE', #180, #55, #254, .T. ) ;
#231 = LINE ( 'NONE', #187, #42 ) ;
#232 = DIRECTION ( 'NONE',  ( 1.000000000000000000, 0.000000000000000000, -0.000000000000000000 ) ) ;
#233 = AXIS2_PLACEMENT_3D ( 'NONE', #236, #304, #276 ) ;
#234 = CARTESIAN_POINT ( 'NONE',  ( 0.000000000000000000, 0.000000000000000000, 5.000000000000000000 ) ) ;
#235 = DIRECTION ( 'NONE',  ( 0.000000000000000000, 0.000000000000000000, 1.000000000000000000 ) ) ;
#236 = CARTESIAN_POINT ( 'NONE',  ( 0.000000000000000000, 0.000000000000000000, 5.200000000000009948 ) ) ;
#237 = AXIS2_PLACEMENT_3D ( 'NONE', #164, #44, #302 ) ;
#238 = ADVANCED_FACE ( 'NONE', ( #94 ), #190, .T. ) ;
#239 = LINE ( 'NONE', #166, #70 ) ;
#240 = FACE_OUTER_BOUND ( 'NONE', #81, .T. ) ;
#241 = DIRECTION ( 'NONE',  ( 0.000000000000000000, 0.000000000000000000, 1.000000000000000000 ) ) ;
#242 = CIRCLE ( 'NONE', #172, 3.500000000000000000 ) ;
#243 = CALENDAR_DATE ( 2022, 7, 7 ) ;
#244 = ORIENTED_EDGE ( 'NONE', *, *, #282, .T. ) ;
#245 = PERSON_AND_ORGANIZATION ( #272, #229 ) ;
#246 = ORIENTED_EDGE ( 'NONE', *, *, #270, .F. ) ;
#247 = AXIS2_PLACEMENT_3D ( 'NONE', #165, #215, #68 ) ;
#248 = EDGE_CURVE ( 'NONE', #278, #55, #239, .T. ) ;
#249 = CALENDAR_DATE ( 2022, 7, 7 ) ;
#250 = ORIENTED_EDGE ( 'NONE', *, *, #25, .F. ) ;
#251 = SHAPE_DEFINITION_REPRESENTATION ( #2, #134 ) ;
#252 = ORIENTED_EDGE ( 'NONE', *, *, #18, .F. ) ;
#253 = VERTEX_POINT ( 'NONE', #69 ) ;
#254 = CIRCLE ( 'NONE', #4, 6.000000000000000888 ) ;
#255 = CARTESIAN_POINT ( 'NONE',  ( -6.000000000000000888, 0.000000000000000000, 0.000000000000000000 ) ) ;
#256 = DIRECTION ( 'NONE',  ( 0.000000000000000000, 0.000000000000000000, 1.000000000000000000 ) ) ;
#257 = CARTESIAN_POINT ( 'NONE',  ( -3.500000000000000000, 0.000000000000000000, 5.200000000000009948 ) ) ;
#258 = LOCAL_TIME ( 12, 7, 49.00000000000000000, #129 ) ;
#259 = DIRECTION ( 'NONE',  ( 1.000000000000000000, 0.000000000000000000, -0.000000000000000000 ) ) ;
#260 = DIRECTION ( 'NONE',  ( 0.000000000000000000, 0.000000000000000000, 1.000000000000000000 ) ) ;
#261 = DIRECTION ( 'NONE',  ( 0.000000000000000000, 0.000000000000000000, 1.000000000000000000 ) ) ;
#262 = DIRECTION ( 'NONE',  ( 1.000000000000000000, 0.000000000000000000, 0.000000000000000000 ) ) ;
#263 = APPROVAL_PERSON_ORGANIZATION ( #80, #287, #268 ) ;
#264 = CARTESIAN_POINT ( 'NONE',  ( 0.000000000000000000, 0.000000000000000000, 5.000000000000000000 ) ) ;
#265 = ADVANCED_FACE ( 'NONE', ( #240 ), #32, .F. ) ;
#266 = DIRECTION ( 'NONE',  ( -0.000000000000000000, -0.000000000000000000, -1.000000000000000000 ) ) ;
#267 = TOROIDAL_SURFACE ( 'NONE', #58, 3.700000000000000178, 0.2000000000000000111 ) ;
#268 = APPROVAL_ROLE ( '' ) ;
#269 = ORIENTED_EDGE ( 'NONE', *, *, #159, .T. ) ;
#270 = EDGE_CURVE ( 'NONE', #79, #274, #280, .T. ) ;
#271 = APPROVAL_ROLE ( '' ) ;
#272 = PERSON ( 'NEURÈENÝ', 'NEURÈENÝ', 'NEURÈENÝ', ('NEURÈENÝ'), ('NEURÈENÝ'), ('NEURÈENÝ') ) ;
#273 = CALENDAR_DATE ( 2022, 7, 7 ) ;
#274 = VERTEX_POINT ( 'NONE', #119 ) ;
#275 = ORIENTED_EDGE ( 'NONE', *, *, #279, .F. ) ;
#276 = DIRECTION ( 'NONE',  ( 1.000000000000000000, 0.000000000000000000, 0.000000000000000000 ) ) ;
#277 = PLANE ( 'NONE',  #286 ) ;
#278 = VERTEX_POINT ( 'NONE', #211 ) ;
#279 = EDGE_CURVE ( 'NONE', #278, #76, #52, .T. ) ;
#280 = CIRCLE ( 'NONE', #145, 3.500000000000000000 ) ;
#281 = FACE_OUTER_BOUND ( 'NONE', #227, .T. ) ;
#282 = EDGE_CURVE ( 'NONE', #76, #278, #95, .T. ) ;
#283 = DIRECTION ( 'NONE',  ( -0.000000000000000000, -0.000000000000000000, -1.000000000000000000 ) ) ;
#284 = CARTESIAN_POINT ( 'NONE',  ( 0.000000000000000000, 0.000000000000000000, 0.000000000000000000 ) ) ;
#285 = DIRECTION ( 'NONE',  ( 0.000000000000000000, 0.000000000000000000, 1.000000000000000000 ) ) ;
#286 = AXIS2_PLACEMENT_3D ( 'NONE', #40, #135, #232 ) ;
#287 = APPROVAL ( #82, 'NEURÈENÝ' ) ;
#288 = CARTESIAN_POINT ( 'NONE',  ( 0.000000000000000000, 0.000000000000000000, 5.000000000000000000 ) ) ;
#289 = CC_DESIGN_PERSON_AND_ORGANIZATION_ASSIGNMENT ( #152, #73, ( #169 ) ) ;
#290 = ORIENTED_EDGE ( 'NONE', *, *, #25, .T. ) ;
#291 = CIRCLE ( 'NONE', #200, 0.1999999999999996503 ) ;
#292 = EDGE_CURVE ( 'NONE', #201, #253, #157, .T. ) ;
#293 = ORIENTED_EDGE ( 'NONE', *, *, #292, .F. ) ;
#294 = APPROVAL_ROLE ( '' ) ;
#295 = PERSON_AND_ORGANIZATION_ROLE ( 'classification_officer' ) ;
#296 = ORIENTED_EDGE ( 'NONE', *, *, #248, .F. ) ;
#297 = APPROVAL_PERSON_ORGANIZATION ( #245, #202, #294 ) ;
#298 = ADVANCED_FACE ( 'NONE', ( #96 ), #117, .T. ) ;
#299 = COORDINATED_UNIVERSAL_TIME_OFFSET ( 1, 0, .AHEAD. ) ;
#300 = ORIENTED_EDGE ( 'NONE', *, *, #48, .F. ) ;
#301 = CARTESIAN_POINT ( 'NONE',  ( 6.000000000000000888, 7.347880794884120722E-16, 5.000000000000000000 ) ) ;
#302 = DIRECTION ( 'NONE',  ( -1.000000000000000000, 0.000000000000000000, 0.000000000000000000 ) ) ;
#303 = CC_DESIGN_APPROVAL ( #287, ( #45 ) ) ;
#304 = DIRECTION ( 'NONE',  ( 0.000000000000000000, 0.000000000000000000, 1.000000000000000000 ) ) ;
#305 = DIRECTION ( 'NONE',  ( 1.000000000000000000, 0.000000000000000000, 0.000000000000000000 ) ) ;
#306 = DIRECTION ( 'NONE',  ( 0.000000000000000000, 0.000000000000000000, 1.000000000000000000 ) ) ;
#307 = AXIS2_PLACEMENT_3D ( 'NONE', #189, #283, #97 ) ;
ENDSEC;
END-ISO-10303-21;
