ISO-10303-21;
HEADER;
FILE_DESCRIPTION (( 'STEP AP203' ),
    '1' );
FILE_NAME ('a2a4.STEP',
    '2023-02-12T12:50:34',
    ( '' ),
    ( '' ),
    'SwSTEP 2.0',
    'SolidWorks 2019',
    '' );
FILE_SCHEMA (( 'CONFIG_CONTROL_DESIGN' ));
ENDSEC;

DATA;
#1 = PRODUCT_DEFINITION_SHAPE ( 'NONE', 'NONE',  #93 ) ;
#2 = VERTEX_POINT ( 'NONE', #96 ) ;
#3 = AXIS2_PLACEMENT_3D ( 'NONE', #209, #162, #131 ) ;
#4 = ORIENTED_EDGE ( 'NONE', *, *, #90, .F. ) ;
#5 = PLANE ( 'NONE',  #239 ) ;
#6 = DIRECTION ( 'NONE',  ( -0.000000000000000000, -0.000000000000000000, -1.000000000000000000 ) ) ;
#7 = PERSON_AND_ORGANIZATION ( #177, #133 ) ;
#8 = PRODUCT_DEFINITION_FORMATION_WITH_SPECIFIED_SOURCE ( 'LIBOVOLNÝ', '', #43, .NOT_KNOWN. ) ;
#9 = CYLINDRICAL_SURFACE ( 'NONE', #38, 1.100000000000000089 ) ;
#10 = DIRECTION ( 'NONE',  ( -1.000000000000000000, 0.000000000000000000, 0.000000000000000000 ) ) ;
#11 = CARTESIAN_POINT ( 'NONE',  ( -1.100000000000000089, 0.000000000000000000, 2.000000000000000000 ) ) ;
#12 = CALENDAR_DATE ( 2023, 12, 2 ) ;
#13 = CIRCLE ( 'NONE', #204, 1.100000000000000089 ) ;
#14 = ADVANCED_BREP_SHAPE_REPRESENTATION ( 'a2a4', ( #160, #3 ), #246 ) ;
#15 = LOCAL_TIME ( 13, 50, 34.00000000000000000, #129 ) ;
#16 = VERTEX_POINT ( 'NONE', #254 ) ;
#17 = DIRECTION ( 'NONE',  ( -0.000000000000000000, -0.000000000000000000, -1.000000000000000000 ) ) ;
#18 = AXIS2_PLACEMENT_3D ( 'NONE', #125, #237, #178 ) ;
#19 = ORIENTED_EDGE ( 'NONE', *, *, #37, .F. ) ;
#20 = EDGE_CURVE ( 'NONE', #2, #16, #81, .T. ) ;
#21 = ORIENTED_EDGE ( 'NONE', *, *, #154, .F. ) ;
#22 = EDGE_LOOP ( 'NONE', ( #82, #140 ) ) ;
#23 = VECTOR ( 'NONE', #240, 1000.000000000000000 ) ;
#24 = CARTESIAN_POINT ( 'NONE',  ( 0.000000000000000000, 0.000000000000000000, 0.000000000000000000 ) ) ;
#25 = DIRECTION ( 'NONE',  ( -0.000000000000000000, -0.000000000000000000, -1.000000000000000000 ) ) ;
#26 = APPROVAL_ROLE ( '' ) ;
#27 = FACE_OUTER_BOUND ( 'NONE', #100, .T. ) ;
#28 = APPROVAL_STATUS ( 'not_yet_approved' ) ;
#29 = CC_DESIGN_APPROVAL ( #75, ( #194 ) ) ;
#30 = DIRECTION ( 'NONE',  ( 0.000000000000000000, 0.000000000000000000, 1.000000000000000000 ) ) ;
#31 = CC_DESIGN_PERSON_AND_ORGANIZATION_ASSIGNMENT ( #132, #86, ( #8 ) ) ;
#32 = APPROVAL_STATUS ( 'not_yet_approved' ) ;
#33 = CARTESIAN_POINT ( 'NONE',  ( 0.000000000000000000, 0.000000000000000000, 2.000000000000000000 ) ) ;
#34 = CALENDAR_DATE ( 2023, 12, 2 ) ;
#35 =( NAMED_UNIT ( * ) PLANE_ANGLE_UNIT ( ) SI_UNIT ( $, .RADIAN. ) );
#36 = APPROVAL_ROLE ( '' ) ;
#37 = EDGE_CURVE ( 'NONE', #136, #253, #79, .T. ) ;
#38 = AXIS2_PLACEMENT_3D ( 'NONE', #176, #144, #49 ) ;
#39 = VERTEX_POINT ( 'NONE', #101 ) ;
#40 = ORIENTED_EDGE ( 'NONE', *, *, #63, .F. ) ;
#41 = AXIS2_PLACEMENT_3D ( 'NONE', #226, #30, #247 ) ;
#42 = APPLICATION_CONTEXT ( 'configuration controlled 3d designs of mechanical parts and assemblies' ) ;
#43 = PRODUCT ( 'a2a4', 'a2a4', '', ( #203 ) ) ;
#44 = EDGE_LOOP ( 'NONE', ( #232, #191 ) ) ;
#45 = ADVANCED_FACE ( 'NONE', ( #98 ), #213, .T. ) ;
#46 = EDGE_LOOP ( 'NONE', ( #153, #214 ) ) ;
#47 = CARTESIAN_POINT ( 'NONE',  ( 0.000000000000000000, 0.000000000000000000, 200.0000000000000000 ) ) ;
#48 = PERSON_AND_ORGANIZATION_ROLE ( 'creator' ) ;
#49 = DIRECTION ( 'NONE',  ( -1.000000000000000000, 0.000000000000000000, 0.000000000000000000 ) ) ;
#50 = DIRECTION ( 'NONE',  ( -1.000000000000000000, 0.000000000000000000, 0.000000000000000000 ) ) ;
#51 = CC_DESIGN_SECURITY_CLASSIFICATION ( #194, ( #8 ) ) ;
#52 = DIRECTION ( 'NONE',  ( 1.000000000000000000, 0.000000000000000000, 0.000000000000000000 ) ) ;
#53 =( LENGTH_UNIT ( ) NAMED_UNIT ( * ) SI_UNIT ( .MILLI., .METRE. ) );
#54 =( NAMED_UNIT ( * ) SI_UNIT ( $, .STERADIAN. ) SOLID_ANGLE_UNIT ( ) );
#55 = CC_DESIGN_APPROVAL ( #163, ( #8 ) ) ;
#56 = ORIENTED_EDGE ( 'NONE', *, *, #230, .F. ) ;
#57 = VERTEX_POINT ( 'NONE', #80 ) ;
#58 = UNCERTAINTY_MEASURE_WITH_UNIT (LENGTH_MEASURE( 1.000000000000000082E-05 ), #53, 'distance_accuracy_value', 'NONE');
#59 = DIRECTION ( 'NONE',  ( -1.000000000000000000, 0.000000000000000000, 0.000000000000000000 ) ) ;
#60 = AXIS2_PLACEMENT_3D ( 'NONE', #217, #234, #59 ) ;
#61 = DIRECTION ( 'NONE',  ( 1.000000000000000000, 0.000000000000000000, 0.000000000000000000 ) ) ;
#62 = ORIENTED_EDGE ( 'NONE', *, *, #114, .T. ) ;
#63 = EDGE_CURVE ( 'NONE', #152, #136, #115, .T. ) ;
#64 = CARTESIAN_POINT ( 'NONE',  ( 0.000000000000000000, 0.000000000000000000, 0.000000000000000000 ) ) ;
#65 = CIRCLE ( 'NONE', #41, 1.100000000000000089 ) ;
#66 = DIRECTION ( 'NONE',  ( 0.000000000000000000, 0.000000000000000000, 1.000000000000000000 ) ) ;
#67 = DATE_AND_TIME ( #241, #74 ) ;
#68 = APPROVAL_DATE_TIME ( #189, #255 ) ;
#69 = DIRECTION ( 'NONE',  ( -0.000000000000000000, -0.000000000000000000, -1.000000000000000000 ) ) ;
#70 = PERSON_AND_ORGANIZATION ( #177, #133 ) ;
#71 = AXIS2_PLACEMENT_3D ( 'NONE', #47, #69, #10 ) ;
#72 = APPLICATION_PROTOCOL_DEFINITION ( 'international standard', 'config_control_design', 1994, #94 ) ;
#73 = PERSON_AND_ORGANIZATION ( #177, #133 ) ;
#74 = LOCAL_TIME ( 13, 50, 34.00000000000000000, #184 ) ;
#75 = APPROVAL ( #148, 'NEURÈENÝ' ) ;
#76 = ORIENTED_EDGE ( 'NONE', *, *, #154, .T. ) ;
#77 = EDGE_CURVE ( 'NONE', #16, #57, #139, .T. ) ;
#78 = ORIENTED_EDGE ( 'NONE', *, *, #201, .T. ) ;
#79 = LINE ( 'NONE', #122, #219 ) ;
#80 = CARTESIAN_POINT ( 'NONE',  ( 1.100000000000000089, 1.347111479062088503E-16, 2.000000000000000000 ) ) ;
#81 = CIRCLE ( 'NONE', #211, 1.100000000000000089 ) ;
#82 = ORIENTED_EDGE ( 'NONE', *, *, #114, .F. ) ;
#83 = CARTESIAN_POINT ( 'NONE',  ( 2.000000000000000000, 2.449293598294706414E-16, 2.000000000000000000 ) ) ;
#84 = LINE ( 'NONE', #223, #97 ) ;
#85 = LOCAL_TIME ( 13, 50, 34.00000000000000000, #227 ) ;
#86 = PERSON_AND_ORGANIZATION_ROLE ( 'design_supplier' ) ;
#87 = DIRECTION ( 'NONE',  ( 1.000000000000000000, 0.000000000000000000, 0.000000000000000000 ) ) ;
#88 = CARTESIAN_POINT ( 'NONE',  ( 0.000000000000000000, 0.000000000000000000, 0.000000000000000000 ) ) ;
#89 = COORDINATED_UNIVERSAL_TIME_OFFSET ( 1, 0, .AHEAD. ) ;
#90 = EDGE_CURVE ( 'NONE', #16, #2, #107, .T. ) ;
#91 = FACE_OUTER_BOUND ( 'NONE', #216, .T. ) ;
#92 = APPROVAL_DATE_TIME ( #179, #163 ) ;
#93 = PRODUCT_DEFINITION ( 'NEZNÁMÝ', '', #8, #212 ) ;
#94 = APPLICATION_CONTEXT ( 'configuration controlled 3d designs of mechanical parts and assemblies' ) ;
#95 = CIRCLE ( 'NONE', #167, 2.000000000000000000 ) ;
#96 = CARTESIAN_POINT ( 'NONE',  ( -1.100000000000000089, 0.000000000000000000, 200.0000000000000000 ) ) ;
#97 = VECTOR ( 'NONE', #25, 1000.000000000000000 ) ;
#98 = FACE_OUTER_BOUND ( 'NONE', #195, .T. ) ;
#99 = ORIENTED_EDGE ( 'NONE', *, *, #116, .T. ) ;
#100 = EDGE_LOOP ( 'NONE', ( #172, #120, #78, #62 ) ) ;
#101 = CARTESIAN_POINT ( 'NONE',  ( 2.000000000000000000, 2.449293598294706414E-16, 0.000000000000000000 ) ) ;
#102 = CLOSED_SHELL ( 'NONE', ( #222, #45, #112, #181, #250, #137, #169 ) ) ;
#103 = FACE_BOUND ( 'NONE', #22, .T. ) ;
#104 = LINE ( 'NONE', #199, #23 ) ;
#105 = CALENDAR_DATE ( 2023, 12, 2 ) ;
#106 = DIRECTION ( 'NONE',  ( 1.000000000000000000, 0.000000000000000000, -0.000000000000000000 ) ) ;
#107 = CIRCLE ( 'NONE', #124, 1.100000000000000089 ) ;
#108 = APPLICATION_PROTOCOL_DEFINITION ( 'international standard', 'config_control_design', 1994, #42 ) ;
#109 = PERSON_AND_ORGANIZATION_ROLE ( 'creator' ) ;
#110 = DIRECTION ( 'NONE',  ( 0.000000000000000000, 0.000000000000000000, 1.000000000000000000 ) ) ;
#111 = PERSON_AND_ORGANIZATION_ROLE ( 'design_owner' ) ;
#112 = ADVANCED_FACE ( 'NONE', ( #207 ), #221, .T. ) ;
#113 = CC_DESIGN_APPROVAL ( #255, ( #93 ) ) ;
#114 = EDGE_CURVE ( 'NONE', #193, #57, #65, .T. ) ;
#115 = CIRCLE ( 'NONE', #141, 2.000000000000000000 ) ;
#116 = EDGE_CURVE ( 'NONE', #57, #193, #13, .T. ) ;
#117 = ORIENTED_EDGE ( 'NONE', *, *, #20, .T. ) ;
#118 = AXIS2_PLACEMENT_3D ( 'NONE', #185, #180, #106 ) ;
#119 = EDGE_LOOP ( 'NONE', ( #21, #56, #173, #175 ) ) ;
#120 = ORIENTED_EDGE ( 'NONE', *, *, #20, .F. ) ;
#121 = CC_DESIGN_DATE_AND_TIME_ASSIGNMENT ( #67, #182, ( #194 ) ) ;
#122 = CARTESIAN_POINT ( 'NONE',  ( -2.000000000000000000, 0.000000000000000000, 2.000000000000000000 ) ) ;
#123 = PLANE ( 'NONE',  #18 ) ;
#124 = AXIS2_PLACEMENT_3D ( 'NONE', #198, #66, #243 ) ;
#125 = CARTESIAN_POINT ( 'NONE',  ( 0.000000000000000000, 0.000000000000000000, 200.0000000000000000 ) ) ;
#126 = DIRECTION ( 'NONE',  ( 1.000000000000000000, 0.000000000000000000, 0.000000000000000000 ) ) ;
#127 = DIRECTION ( 'NONE',  ( 1.000000000000000000, 0.000000000000000000, -0.000000000000000000 ) ) ;
#128 = CIRCLE ( 'NONE', #220, 2.000000000000000000 ) ;
#129 = COORDINATED_UNIVERSAL_TIME_OFFSET ( 1, 0, .AHEAD. ) ;
#130 = DIRECTION ( 'NONE',  ( -0.000000000000000000, -0.000000000000000000, -1.000000000000000000 ) ) ;
#131 = DIRECTION ( 'NONE',  ( 1.000000000000000000, 0.000000000000000000, 0.000000000000000000 ) ) ;
#132 = PERSON_AND_ORGANIZATION ( #177, #133 ) ;
#133 = ORGANIZATION ( 'NEURÈENÝ', 'NEURÈENÝ', '' ) ;
#134 = APPROVAL_DATE_TIME ( #186, #75 ) ;
#135 = DIRECTION ( 'NONE',  ( 1.000000000000000000, 0.000000000000000000, 0.000000000000000000 ) ) ;
#136 = VERTEX_POINT ( 'NONE', #145 ) ;
#137 = ADVANCED_FACE ( 'NONE', ( #27 ), #159, .T. ) ;
#138 = LOCAL_TIME ( 13, 50, 34.00000000000000000, #229 ) ;
#139 = LINE ( 'NONE', #202, #215 ) ;
#140 = ORIENTED_EDGE ( 'NONE', *, *, #116, .F. ) ;
#141 = AXIS2_PLACEMENT_3D ( 'NONE', #157, #236, #61 ) ;
#142 = DIRECTION ( 'NONE',  ( 0.000000000000000000, 0.000000000000000000, 1.000000000000000000 ) ) ;
#143 = DIRECTION ( 'NONE',  ( 0.000000000000000000, 0.000000000000000000, 1.000000000000000000 ) ) ;
#144 = DIRECTION ( 'NONE',  ( -0.000000000000000000, -0.000000000000000000, -1.000000000000000000 ) ) ;
#145 = CARTESIAN_POINT ( 'NONE',  ( -2.000000000000000000, 0.000000000000000000, 2.000000000000000000 ) ) ;
#146 = APPROVAL_ROLE ( '' ) ;
#147 = DIRECTION ( 'NONE',  ( 0.000000000000000000, 0.000000000000000000, 1.000000000000000000 ) ) ;
#148 = APPROVAL_STATUS ( 'not_yet_approved' ) ;
#149 = PERSON_AND_ORGANIZATION ( #177, #133 ) ;
#150 = EDGE_CURVE ( 'NONE', #253, #39, #249, .T. ) ;
#151 = AXIS2_PLACEMENT_3D ( 'NONE', #33, #130, #50 ) ;
#152 = VERTEX_POINT ( 'NONE', #83 ) ;
#153 = ORIENTED_EDGE ( 'NONE', *, *, #230, .T. ) ;
#154 = EDGE_CURVE ( 'NONE', #152, #39, #104, .T. ) ;
#155 = ORIENTED_EDGE ( 'NONE', *, *, #90, .T. ) ;
#156 = LOCAL_TIME ( 13, 50, 34.00000000000000000, #89 ) ;
#157 = CARTESIAN_POINT ( 'NONE',  ( 0.000000000000000000, 0.000000000000000000, 2.000000000000000000 ) ) ;
#158 = FACE_OUTER_BOUND ( 'NONE', #218, .T. ) ;
#159 = CYLINDRICAL_SURFACE ( 'NONE', #71, 1.100000000000000089 ) ;
#160 = MANIFOLD_SOLID_BREP ( 'Pøidat vysunutím3', #102 ) ;
#161 = FACE_OUTER_BOUND ( 'NONE', #46, .T. ) ;
#162 = DIRECTION ( 'NONE',  ( 0.000000000000000000, 0.000000000000000000, 1.000000000000000000 ) ) ;
#163 = APPROVAL ( #32, 'NEURÈENÝ' ) ;
#164 = CARTESIAN_POINT ( 'NONE',  ( 0.000000000000000000, 0.000000000000000000, 2.000000000000000000 ) ) ;
#165 = CALENDAR_DATE ( 2023, 12, 2 ) ;
#166 = PLANE ( 'NONE',  #118 ) ;
#167 = AXIS2_PLACEMENT_3D ( 'NONE', #164, #147, #126 ) ;
#168 = SECURITY_CLASSIFICATION_LEVEL ( 'unclassified' ) ;
#169 = ADVANCED_FACE ( 'NONE', ( #158 ), #123, .T. ) ;
#170 = CARTESIAN_POINT ( 'NONE',  ( 0.000000000000000000, 0.000000000000000000, 200.0000000000000000 ) ) ;
#171 = APPROVAL_PERSON_ORGANIZATION ( #70, #75, #146 ) ;
#172 = ORIENTED_EDGE ( 'NONE', *, *, #77, .F. ) ;
#173 = ORIENTED_EDGE ( 'NONE', *, *, #37, .T. ) ;
#174 = ORIENTED_EDGE ( 'NONE', *, *, #245, .T. ) ;
#175 = ORIENTED_EDGE ( 'NONE', *, *, #150, .T. ) ;
#176 = CARTESIAN_POINT ( 'NONE',  ( 0.000000000000000000, 0.000000000000000000, 200.0000000000000000 ) ) ;
#177 = PERSON ( 'NEURÈENÝ', 'NEURÈENÝ', 'NEURÈENÝ', ('NEURÈENÝ'), ('NEURÈENÝ'), ('NEURÈENÝ') ) ;
#178 = DIRECTION ( 'NONE',  ( 1.000000000000000000, 0.000000000000000000, -0.000000000000000000 ) ) ;
#179 = DATE_AND_TIME ( #165, #156 ) ;
#180 = DIRECTION ( 'NONE',  ( 0.000000000000000000, 0.000000000000000000, 1.000000000000000000 ) ) ;
#181 = ADVANCED_FACE ( 'NONE', ( #103, #161 ), #166, .T. ) ;
#182 = DATE_TIME_ROLE ( 'classification_date' ) ;
#183 = CARTESIAN_POINT ( 'NONE',  ( 0.000000000000000000, 0.000000000000000000, 2.000000000000000000 ) ) ;
#184 = COORDINATED_UNIVERSAL_TIME_OFFSET ( 1, 0, .AHEAD. ) ;
#185 = CARTESIAN_POINT ( 'NONE',  ( 0.000000000000000000, 0.000000000000000000, 2.000000000000000000 ) ) ;
#186 = DATE_AND_TIME ( #34, #138 ) ;
#187 = CC_DESIGN_PERSON_AND_ORGANIZATION_ASSIGNMENT ( #200, #48, ( #93 ) ) ;
#188 = AXIS2_PLACEMENT_3D ( 'NONE', #24, #143, #52 ) ;
#189 = DATE_AND_TIME ( #105, #15 ) ;
#190 = PRODUCT_RELATED_PRODUCT_CATEGORY ( 'detail', '', ( #43 ) ) ;
#191 = ORIENTED_EDGE ( 'NONE', *, *, #245, .F. ) ;
#192 = CC_DESIGN_PERSON_AND_ORGANIZATION_ASSIGNMENT ( #244, #248, ( #194 ) ) ;
#193 = VERTEX_POINT ( 'NONE', #11 ) ;
#194 = SECURITY_CLASSIFICATION ( '', '', #168 ) ;
#195 = EDGE_LOOP ( 'NONE', ( #40, #76, #174, #19 ) ) ;
#196 = ORIENTED_EDGE ( 'NONE', *, *, #77, .T. ) ;
#197 = SHAPE_DEFINITION_REPRESENTATION ( #1, #14 ) ;
#198 = CARTESIAN_POINT ( 'NONE',  ( 0.000000000000000000, 0.000000000000000000, 200.0000000000000000 ) ) ;
#199 = CARTESIAN_POINT ( 'NONE',  ( 2.000000000000000000, 2.449293598294706414E-16, 2.000000000000000000 ) ) ;
#200 = PERSON_AND_ORGANIZATION ( #177, #133 ) ;
#201 = EDGE_CURVE ( 'NONE', #2, #193, #84, .T. ) ;
#202 = CARTESIAN_POINT ( 'NONE',  ( 1.100000000000000089, 1.347111479062088503E-16, 200.0000000000000000 ) ) ;
#203 = MECHANICAL_CONTEXT ( 'NONE', #42, 'mechanical' ) ;
#204 = AXIS2_PLACEMENT_3D ( 'NONE', #183, #110, #87 ) ;
#205 = CARTESIAN_POINT ( 'NONE',  ( -2.000000000000000000, 0.000000000000000000, 0.000000000000000000 ) ) ;
#206 = DATE_AND_TIME ( #12, #85 ) ;
#207 = FACE_OUTER_BOUND ( 'NONE', #119, .T. ) ;
#208 = PERSON_AND_ORGANIZATION ( #177, #133 ) ;
#209 = CARTESIAN_POINT ( 'NONE',  ( 0.000000000000000000, 0.000000000000000000, 0.000000000000000000 ) ) ;
#210 = CC_DESIGN_DATE_AND_TIME_ASSIGNMENT ( #206, #225, ( #93 ) ) ;
#211 = AXIS2_PLACEMENT_3D ( 'NONE', #170, #251, #135 ) ;
#212 = DESIGN_CONTEXT ( 'detailed design', #94, 'design' ) ;
#213 = CYLINDRICAL_SURFACE ( 'NONE', #60, 2.000000000000000000 ) ;
#214 = ORIENTED_EDGE ( 'NONE', *, *, #63, .T. ) ;
#215 = VECTOR ( 'NONE', #6, 1000.000000000000000 ) ;
#216 = EDGE_LOOP ( 'NONE', ( #4, #196, #99, #233 ) ) ;
#217 = CARTESIAN_POINT ( 'NONE',  ( 0.000000000000000000, 0.000000000000000000, 2.000000000000000000 ) ) ;
#218 = EDGE_LOOP ( 'NONE', ( #117, #155 ) ) ;
#219 = VECTOR ( 'NONE', #17, 1000.000000000000000 ) ;
#220 = AXIS2_PLACEMENT_3D ( 'NONE', #88, #242, #228 ) ;
#221 = CYLINDRICAL_SURFACE ( 'NONE', #151, 2.000000000000000000 ) ;
#222 = ADVANCED_FACE ( 'NONE', ( #91 ), #9, .T. ) ;
#223 = CARTESIAN_POINT ( 'NONE',  ( -1.100000000000000089, 0.000000000000000000, 200.0000000000000000 ) ) ;
#224 = FACE_OUTER_BOUND ( 'NONE', #44, .T. ) ;
#225 = DATE_TIME_ROLE ( 'creation_date' ) ;
#226 = CARTESIAN_POINT ( 'NONE',  ( 0.000000000000000000, 0.000000000000000000, 2.000000000000000000 ) ) ;
#227 = COORDINATED_UNIVERSAL_TIME_OFFSET ( 1, 0, .AHEAD. ) ;
#228 = DIRECTION ( 'NONE',  ( 1.000000000000000000, 0.000000000000000000, 0.000000000000000000 ) ) ;
#229 = COORDINATED_UNIVERSAL_TIME_OFFSET ( 1, 0, .AHEAD. ) ;
#230 = EDGE_CURVE ( 'NONE', #136, #152, #95, .T. ) ;
#231 = CC_DESIGN_PERSON_AND_ORGANIZATION_ASSIGNMENT ( #73, #111, ( #43 ) ) ;
#232 = ORIENTED_EDGE ( 'NONE', *, *, #150, .F. ) ;
#233 = ORIENTED_EDGE ( 'NONE', *, *, #201, .F. ) ;
#234 = DIRECTION ( 'NONE',  ( -0.000000000000000000, -0.000000000000000000, -1.000000000000000000 ) ) ;
#235 = APPROVAL_PERSON_ORGANIZATION ( #149, #255, #36 ) ;
#236 = DIRECTION ( 'NONE',  ( 0.000000000000000000, 0.000000000000000000, 1.000000000000000000 ) ) ;
#237 = DIRECTION ( 'NONE',  ( 0.000000000000000000, 0.000000000000000000, 1.000000000000000000 ) ) ;
#238 = CC_DESIGN_PERSON_AND_ORGANIZATION_ASSIGNMENT ( #7, #109, ( #8 ) ) ;
#239 = AXIS2_PLACEMENT_3D ( 'NONE', #64, #142, #127 ) ;
#240 = DIRECTION ( 'NONE',  ( -0.000000000000000000, -0.000000000000000000, -1.000000000000000000 ) ) ;
#241 = CALENDAR_DATE ( 2023, 12, 2 ) ;
#242 = DIRECTION ( 'NONE',  ( 0.000000000000000000, 0.000000000000000000, 1.000000000000000000 ) ) ;
#243 = DIRECTION ( 'NONE',  ( 1.000000000000000000, 0.000000000000000000, 0.000000000000000000 ) ) ;
#244 = PERSON_AND_ORGANIZATION ( #177, #133 ) ;
#245 = EDGE_CURVE ( 'NONE', #39, #253, #128, .T. ) ;
#246 =( GEOMETRIC_REPRESENTATION_CONTEXT ( 3 ) GLOBAL_UNCERTAINTY_ASSIGNED_CONTEXT ( ( #58 ) ) GLOBAL_UNIT_ASSIGNED_CONTEXT ( ( #53, #35, #54 ) ) REPRESENTATION_CONTEXT ( 'NONE', 'WORKASPACE' ) );
#247 = DIRECTION ( 'NONE',  ( 1.000000000000000000, 0.000000000000000000, 0.000000000000000000 ) ) ;
#248 = PERSON_AND_ORGANIZATION_ROLE ( 'classification_officer' ) ;
#249 = CIRCLE ( 'NONE', #188, 2.000000000000000000 ) ;
#250 = ADVANCED_FACE ( 'NONE', ( #224 ), #5, .F. ) ;
#251 = DIRECTION ( 'NONE',  ( 0.000000000000000000, 0.000000000000000000, 1.000000000000000000 ) ) ;
#252 = APPROVAL_PERSON_ORGANIZATION ( #208, #163, #26 ) ;
#253 = VERTEX_POINT ( 'NONE', #205 ) ;
#254 = CARTESIAN_POINT ( 'NONE',  ( 1.100000000000000089, 1.347111479062088503E-16, 200.0000000000000000 ) ) ;
#255 = APPROVAL ( #28, 'NEURÈENÝ' ) ;
ENDSEC;
END-ISO-10303-21;
