ISO-10303-21;
HEADER;
FILE_DESCRIPTION (( 'STEP AP203' ),
    '1' );
FILE_NAME ('e222.STEP',
    '2022-07-07T10:27:49',
    ( '' ),
    ( '' ),
    'SwSTEP 2.0',
    'SolidWorks 2019',
    '' );
FILE_SCHEMA (( 'CONFIG_CONTROL_DESIGN' ));
ENDSEC;

DATA;
#1 =( NAMED_UNIT ( * ) SI_UNIT ( $, .STERADIAN. ) SOLID_ANGLE_UNIT ( ) );
#2 = PERSON_AND_ORGANIZATION ( #198, #279 ) ;
#3 = EDGE_CURVE ( 'NONE', #133, #272, #36, .T. ) ;
#4 = VECTOR ( 'NONE', #227, 1000.000000000000000 ) ;
#5 = ORIENTED_EDGE ( 'NONE', *, *, #70, .T. ) ;
#6 = DATE_AND_TIME ( #224, #75 ) ;
#7 = VERTEX_POINT ( 'NONE', #293 ) ;
#8 = FACE_OUTER_BOUND ( 'NONE', #131, .T. ) ;
#9 = VERTEX_POINT ( 'NONE', #155 ) ;
#10 = LOCAL_TIME ( 12, 27, 49.00000000000000000, #28 ) ;
#11 = ADVANCED_FACE ( 'NONE', ( #88 ), #110, .T. ) ;
#12 = CIRCLE ( 'NONE', #221, 1.950000000000000178 ) ;
#13 = DIRECTION ( 'NONE',  ( 0.000000000000000000, 0.000000000000000000, 1.000000000000000000 ) ) ;
#14 = DIRECTION ( 'NONE',  ( 1.000000000000000000, 0.000000000000000000, 0.000000000000000000 ) ) ;
#15 = PRODUCT_RELATED_PRODUCT_CATEGORY ( 'detail', '', ( #278 ) ) ;
#16 = CYLINDRICAL_SURFACE ( 'NONE', #208, 1.750000000000000000 ) ;
#17 = ORIENTED_EDGE ( 'NONE', *, *, #286, .F. ) ;
#18 = CYLINDRICAL_SURFACE ( 'NONE', #162, 3.500000000000000444 ) ;
#19 = PRODUCT_DEFINITION_FORMATION_WITH_SPECIFIED_SOURCE ( 'LIBOVOLNÝ', '', #278, .NOT_KNOWN. ) ;
#20 = AXIS2_PLACEMENT_3D ( 'NONE', #109, #13, #137 ) ;
#21 = EDGE_CURVE ( 'NONE', #194, #7, #277, .T. ) ;
#22 = EDGE_CURVE ( 'NONE', #23, #223, #280, .T. ) ;
#23 = VERTEX_POINT ( 'NONE', #274 ) ;
#24 = APPROVAL_ROLE ( '' ) ;
#25 = ORIENTED_EDGE ( 'NONE', *, *, #99, .F. ) ;
#26 = AXIS2_PLACEMENT_3D ( 'NONE', #239, #262, #149 ) ;
#27 = CARTESIAN_POINT ( 'NONE',  ( 0.000000000000000000, 0.000000000000000000, 3.199999999999980638 ) ) ;
#28 = COORDINATED_UNIVERSAL_TIME_OFFSET ( 1, 0, .AHEAD. ) ;
#29 = DIRECTION ( 'NONE',  ( -0.000000000000000000, -0.000000000000000000, -1.000000000000000000 ) ) ;
#30 = APPROVAL_STATUS ( 'not_yet_approved' ) ;
#31 = DIRECTION ( 'NONE',  ( 1.224646799147353207E-16, 1.000000000000000000, -0.000000000000000000 ) ) ;
#32 = PERSON_AND_ORGANIZATION_ROLE ( 'classification_officer' ) ;
#33 = SECURITY_CLASSIFICATION ( '', '', #58 ) ;
#34 = AXIS2_PLACEMENT_3D ( 'NONE', #207, #64, #97 ) ;
#35 = CALENDAR_DATE ( 2022, 7, 7 ) ;
#36 = LINE ( 'NONE', #249, #4 ) ;
#37 = DIRECTION ( 'NONE',  ( 1.000000000000000000, 0.000000000000000000, -0.000000000000000000 ) ) ;
#38 = ORIENTED_EDGE ( 'NONE', *, *, #243, .F. ) ;
#39 = EDGE_CURVE ( 'NONE', #223, #7, #187, .T. ) ;
#40 = PLANE ( 'NONE',  #60 ) ;
#41 = CARTESIAN_POINT ( 'NONE',  ( 0.000000000000000000, 0.000000000000000000, 318.0000000000000000 ) ) ;
#42 =( GEOMETRIC_REPRESENTATION_CONTEXT ( 3 ) GLOBAL_UNCERTAINTY_ASSIGNED_CONTEXT ( ( #254 ) ) GLOBAL_UNIT_ASSIGNED_CONTEXT ( ( #216, #164, #1 ) ) REPRESENTATION_CONTEXT ( 'NONE', 'WORKASPACE' ) );
#43 = CARTESIAN_POINT ( 'NONE',  ( -3.500000000000000444, 0.000000000000000000, 3.000000000000000000 ) ) ;
#44 = DIRECTION ( 'NONE',  ( -0.000000000000000000, -0.000000000000000000, -1.000000000000000000 ) ) ;
#45 = CARTESIAN_POINT ( 'NONE',  ( 0.000000000000000000, 0.000000000000000000, 0.000000000000000000 ) ) ;
#46 = ADVANCED_FACE ( 'NONE', ( #255 ), #138, .T. ) ;
#47 = LOCAL_TIME ( 12, 27, 49.00000000000000000, #148 ) ;
#48 = CLOSED_SHELL ( 'NONE', ( #304, #236, #46, #50, #206, #184, #11, #82, #288 ) ) ;
#49 = PRODUCT_DEFINITION_SHAPE ( 'NONE', 'NONE',  #176 ) ;
#50 = ADVANCED_FACE ( 'NONE', ( #8 ), #18, .T. ) ;
#51 = CIRCLE ( 'NONE', #72, 0.1999999999999998723 ) ;
#52 = AXIS2_PLACEMENT_3D ( 'NONE', #45, #139, #37 ) ;
#53 = ORIENTED_EDGE ( 'NONE', *, *, #70, .F. ) ;
#54 = PERSON_AND_ORGANIZATION ( #198, #279 ) ;
#55 = MECHANICAL_CONTEXT ( 'NONE', #214, 'mechanical' ) ;
#56 = PERSON_AND_ORGANIZATION_ROLE ( 'design_supplier' ) ;
#57 = APPLICATION_PROTOCOL_DEFINITION ( 'international standard', 'config_control_design', 1994, #259 ) ;
#58 = SECURITY_CLASSIFICATION_LEVEL ( 'unclassified' ) ;
#59 = ORIENTED_EDGE ( 'NONE', *, *, #93, .T. ) ;
#60 = AXIS2_PLACEMENT_3D ( 'NONE', #199, #134, #152 ) ;
#61 = APPROVAL_DATE_TIME ( #123, #98 ) ;
#62 = CARTESIAN_POINT ( 'NONE',  ( 0.000000000000000000, 0.000000000000000000, 3.000000000000000000 ) ) ;
#63 = ORIENTED_EDGE ( 'NONE', *, *, #21, .F. ) ;
#64 = DIRECTION ( 'NONE',  ( 0.000000000000000000, 0.000000000000000000, 1.000000000000000000 ) ) ;
#65 = VERTEX_POINT ( 'NONE', #43 ) ;
#66 = DIRECTION ( 'NONE',  ( -0.000000000000000000, -0.000000000000000000, -1.000000000000000000 ) ) ;
#67 = DESIGN_CONTEXT ( 'detailed design', #259, 'design' ) ;
#68 = DIRECTION ( 'NONE',  ( 0.000000000000000000, -1.000000000000000000, 0.000000000000000000 ) ) ;
#69 = CIRCLE ( 'NONE', #201, 3.500000000000000444 ) ;
#70 = EDGE_CURVE ( 'NONE', #240, #272, #69, .T. ) ;
#71 = CARTESIAN_POINT ( 'NONE',  ( 1.750000000000000000, 2.143131898507868297E-16, 318.0000000000000000 ) ) ;
#72 = AXIS2_PLACEMENT_3D ( 'NONE', #307, #31, #121 ) ;
#73 = CIRCLE ( 'NONE', #258, 3.500000000000000444 ) ;
#74 = APPROVAL ( #142, 'NEURÈENÝ' ) ;
#75 = LOCAL_TIME ( 12, 27, 49.00000000000000000, #84 ) ;
#76 = ORIENTED_EDGE ( 'NONE', *, *, #232, .F. ) ;
#77 = AXIS2_PLACEMENT_3D ( 'NONE', #205, #271, #253 ) ;
#78 = EDGE_LOOP ( 'NONE', ( #53, #300 ) ) ;
#79 = DIRECTION ( 'NONE',  ( 1.000000000000000000, 0.000000000000000000, 0.000000000000000000 ) ) ;
#80 = PERSON_AND_ORGANIZATION ( #198, #279 ) ;
#81 = CARTESIAN_POINT ( 'NONE',  ( 0.000000000000000000, 0.000000000000000000, 3.199999999999980638 ) ) ;
#82 = ADVANCED_FACE ( 'NONE', ( #178 ), #172, .T. ) ;
#83 = DATE_TIME_ROLE ( 'classification_date' ) ;
#84 = COORDINATED_UNIVERSAL_TIME_OFFSET ( 1, 0, .AHEAD. ) ;
#85 = ORIENTED_EDGE ( 'NONE', *, *, #237, .T. ) ;
#86 = PERSON_AND_ORGANIZATION ( #198, #279 ) ;
#87 = DIRECTION ( 'NONE',  ( -1.000000000000000000, 0.000000000000000000, 0.000000000000000000 ) ) ;
#88 = FACE_OUTER_BOUND ( 'NONE', #117, .T. ) ;
#89 = DIRECTION ( 'NONE',  ( -0.000000000000000000, -0.000000000000000000, -1.000000000000000000 ) ) ;
#90 = EDGE_LOOP ( 'NONE', ( #76, #225, #290, #143 ) ) ;
#91 = CARTESIAN_POINT ( 'NONE',  ( 3.500000000000000444, 4.286263797015737088E-16, 3.000000000000000000 ) ) ;
#92 = DIRECTION ( 'NONE',  ( 1.000000000000000000, 0.000000000000000000, 0.000000000000000000 ) ) ;
#93 = EDGE_CURVE ( 'NONE', #65, #133, #73, .T. ) ;
#94 = DIRECTION ( 'NONE',  ( 0.000000000000000000, 0.000000000000000000, 1.000000000000000000 ) ) ;
#95 = AXIS2_PLACEMENT_3D ( 'NONE', #81, #212, #219 ) ;
#96 = AXIS2_PLACEMENT_3D ( 'NONE', #228, #111, #157 ) ;
#97 = DIRECTION ( 'NONE',  ( 1.000000000000000000, 0.000000000000000000, 0.000000000000000000 ) ) ;
#98 = APPROVAL ( #128, 'NEURÈENÝ' ) ;
#99 = EDGE_CURVE ( 'NONE', #7, #194, #12, .T. ) ;
#100 = VERTEX_POINT ( 'NONE', #250 ) ;
#101 = APPLICATION_PROTOCOL_DEFINITION ( 'international standard', 'config_control_design', 1994, #214 ) ;
#102 = FACE_OUTER_BOUND ( 'NONE', #141, .T. ) ;
#103 = APPROVAL ( #30, 'NEURÈENÝ' ) ;
#104 = FACE_OUTER_BOUND ( 'NONE', #247, .T. ) ;
#105 = CIRCLE ( 'NONE', #34, 3.500000000000000444 ) ;
#106 = ORIENTED_EDGE ( 'NONE', *, *, #21, .T. ) ;
#107 = ORIENTED_EDGE ( 'NONE', *, *, #281, .T. ) ;
#108 = VECTOR ( 'NONE', #29, 1000.000000000000000 ) ;
#109 = CARTESIAN_POINT ( 'NONE',  ( 0.000000000000000000, 0.000000000000000000, 318.0000000000000000 ) ) ;
#110 = CYLINDRICAL_SURFACE ( 'NONE', #161, 1.750000000000000000 ) ;
#111 = DIRECTION ( 'NONE',  ( 0.000000000000000000, 0.000000000000000000, 1.000000000000000000 ) ) ;
#112 = CARTESIAN_POINT ( 'NONE',  ( 0.000000000000000000, 0.000000000000000000, 3.199999999999980638 ) ) ;
#113 = DIRECTION ( 'NONE',  ( -0.000000000000000000, -0.000000000000000000, -1.000000000000000000 ) ) ;
#114 = CARTESIAN_POINT ( 'NONE',  ( 1.950000000000000178, 0.000000000000000000, 3.199999999999980638 ) ) ;
#115 = DIRECTION ( 'NONE',  ( 1.000000000000000000, 0.000000000000000000, 0.000000000000000000 ) ) ;
#116 = CIRCLE ( 'NONE', #235, 1.750000000000000000 ) ;
#117 = EDGE_LOOP ( 'NONE', ( #266, #238, #233, #251 ) ) ;
#118 = EDGE_LOOP ( 'NONE', ( #59, #200 ) ) ;
#119 = COORDINATED_UNIVERSAL_TIME_OFFSET ( 1, 0, .AHEAD. ) ;
#120 = CIRCLE ( 'NONE', #160, 1.750000000000000000 ) ;
#121 = DIRECTION ( 'NONE',  ( -1.000000000000000000, 1.224646799147354686E-16, 0.000000000000000000 ) ) ;
#122 = EDGE_CURVE ( 'NONE', #9, #223, #204, .T. ) ;
#123 = DATE_AND_TIME ( #268, #47 ) ;
#124 = CARTESIAN_POINT ( 'NONE',  ( 0.000000000000000000, 0.000000000000000000, 318.0000000000000000 ) ) ;
#125 = COORDINATED_UNIVERSAL_TIME_OFFSET ( 1, 0, .AHEAD. ) ;
#126 = LINE ( 'NONE', #190, #108 ) ;
#127 = TOROIDAL_SURFACE ( 'NONE', #306, 1.950000000000000178, 0.2000000000000000111 ) ;
#128 = APPROVAL_STATUS ( 'not_yet_approved' ) ;
#129 = CIRCLE ( 'NONE', #267, 1.750000000000000000 ) ;
#130 = DATE_AND_TIME ( #35, #10 ) ;
#131 = EDGE_LOOP ( 'NONE', ( #197, #282, #297, #5 ) ) ;
#132 = DIRECTION ( 'NONE',  ( -0.000000000000000000, -0.000000000000000000, -1.000000000000000000 ) ) ;
#133 = VERTEX_POINT ( 'NONE', #91 ) ;
#134 = DIRECTION ( 'NONE',  ( 0.000000000000000000, 0.000000000000000000, 1.000000000000000000 ) ) ;
#135 = ORIENTED_EDGE ( 'NONE', *, *, #122, .T. ) ;
#136 = CC_DESIGN_DATE_AND_TIME_ASSIGNMENT ( #291, #265, ( #176 ) ) ;
#137 = DIRECTION ( 'NONE',  ( 1.000000000000000000, 0.000000000000000000, -0.000000000000000000 ) ) ;
#138 = CYLINDRICAL_SURFACE ( 'NONE', #77, 3.500000000000000444 ) ;
#139 = DIRECTION ( 'NONE',  ( 0.000000000000000000, 0.000000000000000000, 1.000000000000000000 ) ) ;
#140 = CIRCLE ( 'NONE', #96, 3.500000000000000444 ) ;
#141 = EDGE_LOOP ( 'NONE', ( #151, #38, #153, #63 ) ) ;
#142 = APPROVAL_STATUS ( 'not_yet_approved' ) ;
#143 = ORIENTED_EDGE ( 'NONE', *, *, #165, .F. ) ;
#144 = CARTESIAN_POINT ( 'NONE',  ( 3.500000000000000444, 4.286263797015737088E-16, 0.000000000000000000 ) ) ;
#145 = CC_DESIGN_DATE_AND_TIME_ASSIGNMENT ( #6, #83, ( #33 ) ) ;
#146 = DIRECTION ( 'NONE',  ( 1.000000000000000000, 0.000000000000000000, 0.000000000000000000 ) ) ;
#147 = APPROVAL_DATE_TIME ( #168, #74 ) ;
#148 = COORDINATED_UNIVERSAL_TIME_OFFSET ( 1, 0, .AHEAD. ) ;
#149 = DIRECTION ( 'NONE',  ( 1.000000000000000000, 0.000000000000000000, 0.000000000000000000 ) ) ;
#150 = PERSON_AND_ORGANIZATION ( #198, #279 ) ;
#151 = ORIENTED_EDGE ( 'NONE', *, *, #281, .F. ) ;
#152 = DIRECTION ( 'NONE',  ( 1.000000000000000000, 0.000000000000000000, -0.000000000000000000 ) ) ;
#153 = ORIENTED_EDGE ( 'NONE', *, *, #39, .T. ) ;
#154 = CARTESIAN_POINT ( 'NONE',  ( -1.950000000000000178, 2.388061258337339136E-16, 2.999999999999990674 ) ) ;
#155 = CARTESIAN_POINT ( 'NONE',  ( 1.750000000000000000, 2.143131898507868297E-16, 318.0000000000000000 ) ) ;
#156 = CC_DESIGN_PERSON_AND_ORGANIZATION_ASSIGNMENT ( #2, #287, ( #278 ) ) ;
#157 = DIRECTION ( 'NONE',  ( 1.000000000000000000, 0.000000000000000000, 0.000000000000000000 ) ) ;
#158 = DIRECTION ( 'NONE',  ( 0.000000000000000000, 0.000000000000000000, -1.000000000000000000 ) ) ;
#159 = CARTESIAN_POINT ( 'NONE',  ( 0.000000000000000000, 0.000000000000000000, 3.000000000000000000 ) ) ;
#160 = AXIS2_PLACEMENT_3D ( 'NONE', #124, #189, #163 ) ;
#161 = AXIS2_PLACEMENT_3D ( 'NONE', #41, #44, #173 ) ;
#162 = AXIS2_PLACEMENT_3D ( 'NONE', #159, #66, #202 ) ;
#163 = DIRECTION ( 'NONE',  ( 1.000000000000000000, 0.000000000000000000, 0.000000000000000000 ) ) ;
#164 =( NAMED_UNIT ( * ) PLANE_ANGLE_UNIT ( ) SI_UNIT ( $, .RADIAN. ) );
#165 = EDGE_CURVE ( 'NONE', #65, #240, #296, .T. ) ;
#166 = CALENDAR_DATE ( 2022, 7, 7 ) ;
#167 = ADVANCED_BREP_SHAPE_REPRESENTATION ( 'e222', ( #252, #26 ), #42 ) ;
#168 = DATE_AND_TIME ( #195, #283 ) ;
#169 = ORIENTED_EDGE ( 'NONE', *, *, #243, .T. ) ;
#170 = APPROVAL_PERSON_ORGANIZATION ( #54, #74, #24 ) ;
#171 = PERSON_AND_ORGANIZATION_ROLE ( 'creator' ) ;
#172 = PLANE ( 'NONE',  #20 ) ;
#173 = DIRECTION ( 'NONE',  ( -1.000000000000000000, 0.000000000000000000, 0.000000000000000000 ) ) ;
#174 = AXIS2_PLACEMENT_3D ( 'NONE', #114, #68, #158 ) ;
#175 = DIRECTION ( 'NONE',  ( 1.000000000000000000, 0.000000000000000000, 0.000000000000000000 ) ) ;
#176 = PRODUCT_DEFINITION ( 'NEZNÁMÝ', '', #19, #67 ) ;
#177 = ORIENTED_EDGE ( 'NONE', *, *, #261, .F. ) ;
#178 = FACE_OUTER_BOUND ( 'NONE', #260, .T. ) ;
#179 = ORIENTED_EDGE ( 'NONE', *, *, #39, .F. ) ;
#180 = DIRECTION ( 'NONE',  ( 1.000000000000000000, 0.000000000000000000, 0.000000000000000000 ) ) ;
#181 = FACE_OUTER_BOUND ( 'NONE', #118, .T. ) ;
#182 = CC_DESIGN_SECURITY_CLASSIFICATION ( #33, ( #19 ) ) ;
#183 = VECTOR ( 'NONE', #298, 1000.000000000000000 ) ;
#184 = ADVANCED_FACE ( 'NONE', ( #226 ), #231, .F. ) ;
#185 = ORIENTED_EDGE ( 'NONE', *, *, #99, .T. ) ;
#186 = APPROVAL_PERSON_ORGANIZATION ( #215, #98, #263 ) ;
#187 = CIRCLE ( 'NONE', #174, 0.2000000000000000944 ) ;
#188 = ORIENTED_EDGE ( 'NONE', *, *, #286, .T. ) ;
#189 = DIRECTION ( 'NONE',  ( 0.000000000000000000, 0.000000000000000000, 1.000000000000000000 ) ) ;
#190 = CARTESIAN_POINT ( 'NONE',  ( -1.750000000000000000, 0.000000000000000000, 318.0000000000000000 ) ) ;
#191 = CARTESIAN_POINT ( 'NONE',  ( 0.000000000000000000, 0.000000000000000000, 3.199999999999980638 ) ) ;
#192 = EDGE_CURVE ( 'NONE', #272, #240, #105, .T. ) ;
#193 = APPROVAL_ROLE ( '' ) ;
#194 = VERTEX_POINT ( 'NONE', #154 ) ;
#195 = CALENDAR_DATE ( 2022, 7, 7 ) ;
#196 = FACE_OUTER_BOUND ( 'NONE', #305, .T. ) ;
#197 = ORIENTED_EDGE ( 'NONE', *, *, #3, .F. ) ;
#198 = PERSON ( 'NEURÈENÝ', 'NEURÈENÝ', 'NEURÈENÝ', ('NEURÈENÝ'), ('NEURÈENÝ'), ('NEURÈENÝ') ) ;
#199 = CARTESIAN_POINT ( 'NONE',  ( 0.000000000000000000, 0.000000000000000000, 3.000000000000000000 ) ) ;
#200 = ORIENTED_EDGE ( 'NONE', *, *, #232, .T. ) ;
#201 = AXIS2_PLACEMENT_3D ( 'NONE', #269, #234, #115 ) ;
#202 = DIRECTION ( 'NONE',  ( -1.000000000000000000, 0.000000000000000000, 0.000000000000000000 ) ) ;
#203 = DIRECTION ( 'NONE',  ( 0.000000000000000000, 0.000000000000000000, 1.000000000000000000 ) ) ;
#204 = LINE ( 'NONE', #71, #183 ) ;
#205 = CARTESIAN_POINT ( 'NONE',  ( 0.000000000000000000, 0.000000000000000000, 3.000000000000000000 ) ) ;
#206 = ADVANCED_FACE ( 'NONE', ( #273, #181 ), #40, .T. ) ;
#207 = CARTESIAN_POINT ( 'NONE',  ( 0.000000000000000000, 0.000000000000000000, 0.000000000000000000 ) ) ;
#208 = AXIS2_PLACEMENT_3D ( 'NONE', #292, #113, #87 ) ;
#209 = CC_DESIGN_PERSON_AND_ORGANIZATION_ASSIGNMENT ( #80, #244, ( #176 ) ) ;
#210 = EDGE_LOOP ( 'NONE', ( #185, #106 ) ) ;
#211 = ORIENTED_EDGE ( 'NONE', *, *, #22, .F. ) ;
#212 = DIRECTION ( 'NONE',  ( 0.000000000000000000, 0.000000000000000000, 1.000000000000000000 ) ) ;
#213 = CC_DESIGN_APPROVAL ( #98, ( #33 ) ) ;
#214 = APPLICATION_CONTEXT ( 'configuration controlled 3d designs of mechanical parts and assemblies' ) ;
#215 = PERSON_AND_ORGANIZATION ( #198, #279 ) ;
#216 =( LENGTH_UNIT ( ) NAMED_UNIT ( * ) SI_UNIT ( .MILLI., .METRE. ) );
#217 = CC_DESIGN_PERSON_AND_ORGANIZATION_ASSIGNMENT ( #246, #32, ( #33 ) ) ;
#218 = SHAPE_DEFINITION_REPRESENTATION ( #49, #167 ) ;
#219 = DIRECTION ( 'NONE',  ( 1.000000000000000000, 0.000000000000000000, 0.000000000000000000 ) ) ;
#220 = LOCAL_TIME ( 12, 27, 49.00000000000000000, #125 ) ;
#221 = AXIS2_PLACEMENT_3D ( 'NONE', #303, #132, #180 ) ;
#222 = PERSON_AND_ORGANIZATION ( #198, #279 ) ;
#223 = VERTEX_POINT ( 'NONE', #248 ) ;
#224 = CALENDAR_DATE ( 2022, 7, 7 ) ;
#225 = ORIENTED_EDGE ( 'NONE', *, *, #3, .T. ) ;
#226 = FACE_OUTER_BOUND ( 'NONE', #78, .T. ) ;
#227 = DIRECTION ( 'NONE',  ( -0.000000000000000000, -0.000000000000000000, -1.000000000000000000 ) ) ;
#228 = CARTESIAN_POINT ( 'NONE',  ( 0.000000000000000000, 0.000000000000000000, 3.000000000000000000 ) ) ;
#229 = CARTESIAN_POINT ( 'NONE',  ( 0.000000000000000000, 0.000000000000000000, 3.000000000000000000 ) ) ;
#230 = VECTOR ( 'NONE', #89, 1000.000000000000000 ) ;
#231 = PLANE ( 'NONE',  #52 ) ;
#232 = EDGE_CURVE ( 'NONE', #133, #65, #140, .T. ) ;
#233 = ORIENTED_EDGE ( 'NONE', *, *, #261, .T. ) ;
#234 = DIRECTION ( 'NONE',  ( 0.000000000000000000, 0.000000000000000000, 1.000000000000000000 ) ) ;
#235 = AXIS2_PLACEMENT_3D ( 'NONE', #27, #285, #146 ) ;
#236 = ADVANCED_FACE ( 'NONE', ( #196 ), #16, .T. ) ;
#237 = EDGE_CURVE ( 'NONE', #100, #9, #129, .T. ) ;
#238 = ORIENTED_EDGE ( 'NONE', *, *, #237, .F. ) ;
#239 = CARTESIAN_POINT ( 'NONE',  ( 0.000000000000000000, 0.000000000000000000, 0.000000000000000000 ) ) ;
#240 = VERTEX_POINT ( 'NONE', #242 ) ;
#241 = CC_DESIGN_APPROVAL ( #74, ( #176 ) ) ;
#242 = CARTESIAN_POINT ( 'NONE',  ( -3.500000000000000444, 0.000000000000000000, 0.000000000000000000 ) ) ;
#243 = EDGE_CURVE ( 'NONE', #223, #23, #116, .T. ) ;
#244 = PERSON_AND_ORGANIZATION_ROLE ( 'creator' ) ;
#245 = DIRECTION ( 'NONE',  ( 0.000000000000000000, 0.000000000000000000, 1.000000000000000000 ) ) ;
#246 = PERSON_AND_ORGANIZATION ( #198, #279 ) ;
#247 = EDGE_LOOP ( 'NONE', ( #211, #107, #25, #179 ) ) ;
#248 = CARTESIAN_POINT ( 'NONE',  ( 1.750000000000000000, 2.143131898507868297E-16, 3.199999999999980638 ) ) ;
#249 = CARTESIAN_POINT ( 'NONE',  ( 3.500000000000000444, 4.286263797015737088E-16, 3.000000000000000000 ) ) ;
#250 = CARTESIAN_POINT ( 'NONE',  ( -1.750000000000000000, 0.000000000000000000, 318.0000000000000000 ) ) ;
#251 = ORIENTED_EDGE ( 'NONE', *, *, #22, .T. ) ;
#252 = MANIFOLD_SOLID_BREP ( 'Zaoblit1', #48 ) ;
#253 = DIRECTION ( 'NONE',  ( -1.000000000000000000, 0.000000000000000000, 0.000000000000000000 ) ) ;
#254 = UNCERTAINTY_MEASURE_WITH_UNIT (LENGTH_MEASURE( 1.000000000000000082E-05 ), #216, 'distance_accuracy_value', 'NONE');
#255 = FACE_OUTER_BOUND ( 'NONE', #90, .T. ) ;
#256 = CARTESIAN_POINT ( 'NONE',  ( -3.500000000000000444, 0.000000000000000000, 3.000000000000000000 ) ) ;
#257 = APPROVAL_PERSON_ORGANIZATION ( #222, #103, #193 ) ;
#258 = AXIS2_PLACEMENT_3D ( 'NONE', #62, #276, #175 ) ;
#259 = APPLICATION_CONTEXT ( 'configuration controlled 3d designs of mechanical parts and assemblies' ) ;
#260 = EDGE_LOOP ( 'NONE', ( #85, #188 ) ) ;
#261 = EDGE_CURVE ( 'NONE', #100, #23, #126, .T. ) ;
#262 = DIRECTION ( 'NONE',  ( 0.000000000000000000, 0.000000000000000000, 1.000000000000000000 ) ) ;
#263 = APPROVAL_ROLE ( '' ) ;
#264 = DIRECTION ( 'NONE',  ( 1.000000000000000000, 0.000000000000000000, 0.000000000000000000 ) ) ;
#265 = DATE_TIME_ROLE ( 'creation_date' ) ;
#266 = ORIENTED_EDGE ( 'NONE', *, *, #122, .F. ) ;
#267 = AXIS2_PLACEMENT_3D ( 'NONE', #301, #94, #264 ) ;
#268 = CALENDAR_DATE ( 2022, 7, 7 ) ;
#269 = CARTESIAN_POINT ( 'NONE',  ( 0.000000000000000000, 0.000000000000000000, 0.000000000000000000 ) ) ;
#270 = DIRECTION ( 'NONE',  ( -0.000000000000000000, -0.000000000000000000, -1.000000000000000000 ) ) ;
#271 = DIRECTION ( 'NONE',  ( -0.000000000000000000, -0.000000000000000000, -1.000000000000000000 ) ) ;
#272 = VERTEX_POINT ( 'NONE', #144 ) ;
#273 = FACE_BOUND ( 'NONE', #210, .T. ) ;
#274 = CARTESIAN_POINT ( 'NONE',  ( -1.750000000000000000, 0.000000000000000000, 3.199999999999980638 ) ) ;
#275 = CC_DESIGN_PERSON_AND_ORGANIZATION_ASSIGNMENT ( #150, #56, ( #19 ) ) ;
#276 = DIRECTION ( 'NONE',  ( 0.000000000000000000, 0.000000000000000000, 1.000000000000000000 ) ) ;
#277 = CIRCLE ( 'NONE', #295, 1.950000000000000178 ) ;
#278 = PRODUCT ( 'e222', 'e222', '', ( #55 ) ) ;
#279 = ORGANIZATION ( 'NEURÈENÝ', 'NEURÈENÝ', '' ) ;
#280 = CIRCLE ( 'NONE', #284, 1.750000000000000000 ) ;
#281 = EDGE_CURVE ( 'NONE', #23, #194, #51, .T. ) ;
#282 = ORIENTED_EDGE ( 'NONE', *, *, #93, .F. ) ;
#283 = LOCAL_TIME ( 12, 27, 49.00000000000000000, #119 ) ;
#284 = AXIS2_PLACEMENT_3D ( 'NONE', #112, #203, #92 ) ;
#285 = DIRECTION ( 'NONE',  ( 0.000000000000000000, 0.000000000000000000, 1.000000000000000000 ) ) ;
#286 = EDGE_CURVE ( 'NONE', #9, #100, #120, .T. ) ;
#287 = PERSON_AND_ORGANIZATION_ROLE ( 'design_owner' ) ;
#288 = ADVANCED_FACE ( 'NONE', ( #102 ), #294, .F. ) ;
#289 = APPROVAL_DATE_TIME ( #130, #103 ) ;
#290 = ORIENTED_EDGE ( 'NONE', *, *, #192, .T. ) ;
#291 = DATE_AND_TIME ( #166, #220 ) ;
#292 = CARTESIAN_POINT ( 'NONE',  ( 0.000000000000000000, 0.000000000000000000, 318.0000000000000000 ) ) ;
#293 = CARTESIAN_POINT ( 'NONE',  ( 1.950000000000000178, 0.000000000000000000, 2.999999999999990674 ) ) ;
#294 = TOROIDAL_SURFACE ( 'NONE', #95, 1.950000000000000178, 0.2000000000000000111 ) ;
#295 = AXIS2_PLACEMENT_3D ( 'NONE', #229, #270, #14 ) ;
#296 = LINE ( 'NONE', #256, #230 ) ;
#297 = ORIENTED_EDGE ( 'NONE', *, *, #165, .T. ) ;
#298 = DIRECTION ( 'NONE',  ( -0.000000000000000000, -0.000000000000000000, -1.000000000000000000 ) ) ;
#299 = CC_DESIGN_PERSON_AND_ORGANIZATION_ASSIGNMENT ( #86, #171, ( #19 ) ) ;
#300 = ORIENTED_EDGE ( 'NONE', *, *, #192, .F. ) ;
#301 = CARTESIAN_POINT ( 'NONE',  ( 0.000000000000000000, 0.000000000000000000, 318.0000000000000000 ) ) ;
#302 = CC_DESIGN_APPROVAL ( #103, ( #19 ) ) ;
#303 = CARTESIAN_POINT ( 'NONE',  ( 0.000000000000000000, 0.000000000000000000, 3.000000000000000000 ) ) ;
#304 = ADVANCED_FACE ( 'NONE', ( #104 ), #127, .F. ) ;
#305 = EDGE_LOOP ( 'NONE', ( #17, #135, #169, #177 ) ) ;
#306 = AXIS2_PLACEMENT_3D ( 'NONE', #191, #245, #79 ) ;
#307 = CARTESIAN_POINT ( 'NONE',  ( -1.950000000000000178, 2.388061258337339136E-16, 3.199999999999980638 ) ) ;
ENDSEC;
END-ISO-10303-21;
