ISO-10303-21;
HEADER;
FILE_DESCRIPTION (( 'STEP AP203' ),
    '1' );
FILE_NAME ('e4f2.STEP',
    '2022-07-07T09:50:08',
    ( '' ),
    ( '' ),
    'SwSTEP 2.0',
    'SolidWorks 2019',
    '' );
FILE_SCHEMA (( 'CONFIG_CONTROL_DESIGN' ));
ENDSEC;

DATA;
#1 = AXIS2_PLACEMENT_3D ( 'NONE', #260, #210, #66 ) ;
#2 = TOROIDAL_SURFACE ( 'NONE', #1, 5.450000000000001066, 0.2000000000000000111 ) ;
#3 = DIRECTION ( 'NONE',  ( -0.000000000000000000, -0.000000000000000000, -1.000000000000000000 ) ) ;
#4 = EDGE_LOOP ( 'NONE', ( #102, #169 ) ) ;
#5 = CYLINDRICAL_SURFACE ( 'NONE', #75, 5.250000000000000888 ) ;
#6 = ORIENTED_EDGE ( 'NONE', *, *, #187, .T. ) ;
#7 = CIRCLE ( 'NONE', #72, 5.250000000000000888 ) ;
#8 = VERTEX_POINT ( 'NONE', #219 ) ;
#9 = DIRECTION ( 'NONE',  ( 1.000000000000000000, 0.000000000000000000, 0.000000000000000000 ) ) ;
#10 = ORIENTED_EDGE ( 'NONE', *, *, #258, .T. ) ;
#11 = ORIENTED_EDGE ( 'NONE', *, *, #225, .F. ) ;
#12 = DIRECTION ( 'NONE',  ( -1.000000000000000000, 1.224646799147353454E-16, 0.000000000000000000 ) ) ;
#13 = CALENDAR_DATE ( 2022, 7, 7 ) ;
#14 = LOCAL_TIME ( 11, 50, 8.000000000000000000, #284 ) ;
#15 = DIRECTION ( 'NONE',  ( 1.000000000000000000, 0.000000000000000000, 0.000000000000000000 ) ) ;
#16 = CARTESIAN_POINT ( 'NONE',  ( 0.000000000000000000, 0.000000000000000000, 0.000000000000000000 ) ) ;
#17 = ADVANCED_FACE ( 'NONE', ( #99 ), #5, .T. ) ;
#18 = CARTESIAN_POINT ( 'NONE',  ( 5.250000000000000888, 6.429395695523605139E-16, 405.0000000000000000 ) ) ;
#19 = DIRECTION ( 'NONE',  ( -1.000000000000000000, 0.000000000000000000, 0.000000000000000000 ) ) ;
#20 = LOCAL_TIME ( 11, 50, 8.000000000000000000, #306 ) ;
#21 = CARTESIAN_POINT ( 'NONE',  ( 5.250000000000000888, 6.429395695523605139E-16, 5.199999999999982414 ) ) ;
#22 = PRODUCT ( 'e4f2', 'e4f2', '', ( #212 ) ) ;
#23 = PERSON_AND_ORGANIZATION_ROLE ( 'creator' ) ;
#24 = EDGE_CURVE ( 'NONE', #30, #58, #139, .T. ) ;
#25 = DATE_AND_TIME ( #13, #133 ) ;
#26 = AXIS2_PLACEMENT_3D ( 'NONE', #296, #126, #267 ) ;
#27 = AXIS2_PLACEMENT_3D ( 'NONE', #185, #231, #19 ) ;
#28 = SECURITY_CLASSIFICATION ( '', '', #262 ) ;
#29 = CARTESIAN_POINT ( 'NONE',  ( -5.450000000000001066, 6.674325055353076224E-16, 4.999999999999991118 ) ) ;
#30 = VERTEX_POINT ( 'NONE', #77 ) ;
#31 = ORIENTED_EDGE ( 'NONE', *, *, #230, .F. ) ;
#32 = ADVANCED_BREP_SHAPE_REPRESENTATION ( 'e4f2', ( #145, #149 ), #178 ) ;
#33 = VERTEX_POINT ( 'NONE', #55 ) ;
#34 = DIRECTION ( 'NONE',  ( 0.000000000000000000, 0.000000000000000000, 1.000000000000000000 ) ) ;
#35 = AXIS2_PLACEMENT_3D ( 'NONE', #270, #73, #216 ) ;
#36 = EDGE_LOOP ( 'NONE', ( #83, #128, #81, #80 ) ) ;
#37 = APPROVAL_PERSON_ORGANIZATION ( #213, #190, #164 ) ;
#38 = ADVANCED_FACE ( 'NONE', ( #291 ), #100, .T. ) ;
#39 = CARTESIAN_POINT ( 'NONE',  ( -5.450000000000001066, 6.674325055353076224E-16, 5.199999999999982414 ) ) ;
#40 = CARTESIAN_POINT ( 'NONE',  ( -8.000000000000000000, 0.000000000000000000, 0.000000000000000000 ) ) ;
#41 = AXIS2_PLACEMENT_3D ( 'NONE', #155, #157, #15 ) ;
#42 = DIRECTION ( 'NONE',  ( -0.000000000000000000, -0.000000000000000000, -1.000000000000000000 ) ) ;
#43 = CC_DESIGN_PERSON_AND_ORGANIZATION_ASSIGNMENT ( #118, #69, ( #209 ) ) ;
#44 = FACE_OUTER_BOUND ( 'NONE', #124, .T. ) ;
#45 = UNCERTAINTY_MEASURE_WITH_UNIT (LENGTH_MEASURE( 1.000000000000000082E-05 ), #287, 'distance_accuracy_value', 'NONE');
#46 = AXIS2_PLACEMENT_3D ( 'NONE', #232, #304, #89 ) ;
#47 = DIRECTION ( 'NONE',  ( 1.000000000000000000, 0.000000000000000000, 0.000000000000000000 ) ) ;
#48 = APPROVAL_DATE_TIME ( #50, #190 ) ;
#49 = EDGE_CURVE ( 'NONE', #30, #198, #170, .T. ) ;
#50 = DATE_AND_TIME ( #189, #280 ) ;
#51 = PERSON_AND_ORGANIZATION_ROLE ( 'classification_officer' ) ;
#52 = CARTESIAN_POINT ( 'NONE',  ( 5.450000000000001066, 0.000000000000000000, 4.999999999999991118 ) ) ;
#53 = APPROVAL_PERSON_ORGANIZATION ( #95, #121, #142 ) ;
#54 = VERTEX_POINT ( 'NONE', #29 ) ;
#55 = CARTESIAN_POINT ( 'NONE',  ( 8.000000000000000000, 9.797174393178825657E-16, 0.000000000000000000 ) ) ;
#56 = ORIENTED_EDGE ( 'NONE', *, *, #277, .T. ) ;
#57 = ORIENTED_EDGE ( 'NONE', *, *, #277, .F. ) ;
#58 = VERTEX_POINT ( 'NONE', #192 ) ;
#59 = AXIS2_PLACEMENT_3D ( 'NONE', #282, #261, #302 ) ;
#60 = ORIENTED_EDGE ( 'NONE', *, *, #49, .T. ) ;
#61 = DIRECTION ( 'NONE',  ( -0.000000000000000000, -0.000000000000000000, -1.000000000000000000 ) ) ;
#62 = CARTESIAN_POINT ( 'NONE',  ( 0.000000000000000000, 0.000000000000000000, 5.000000000000000000 ) ) ;
#63 = AXIS2_PLACEMENT_3D ( 'NONE', #168, #3, #246 ) ;
#64 = LINE ( 'NONE', #18, #158 ) ;
#65 = LINE ( 'NONE', #140, #263 ) ;
#66 = DIRECTION ( 'NONE',  ( 1.000000000000000000, 0.000000000000000000, 0.000000000000000000 ) ) ;
#67 = DATE_AND_TIME ( #115, #285 ) ;
#68 = APPLICATION_PROTOCOL_DEFINITION ( 'international standard', 'config_control_design', 1994, #256 ) ;
#69 = PERSON_AND_ORGANIZATION_ROLE ( 'design_supplier' ) ;
#70 = EDGE_CURVE ( 'NONE', #33, #252, #97, .T. ) ;
#71 = PERSON ( 'NEURÈENÝ', 'NEURÈENÝ', 'NEURÈENÝ', ('NEURÈENÝ'), ('NEURÈENÝ'), ('NEURÈENÝ') ) ;
#72 = AXIS2_PLACEMENT_3D ( 'NONE', #110, #278, #207 ) ;
#73 = DIRECTION ( 'NONE',  ( 0.000000000000000000, 0.000000000000000000, 1.000000000000000000 ) ) ;
#74 = CC_DESIGN_DATE_AND_TIME_ASSIGNMENT ( #25, #204, ( #165 ) ) ;
#75 = AXIS2_PLACEMENT_3D ( 'NONE', #195, #151, #148 ) ;
#76 = ORIENTED_EDGE ( 'NONE', *, *, #138, .T. ) ;
#77 = CARTESIAN_POINT ( 'NONE',  ( -5.250000000000000888, 0.000000000000000000, 405.0000000000000000 ) ) ;
#78 = DIRECTION ( 'NONE',  ( 1.000000000000000000, 0.000000000000000000, -0.000000000000000000 ) ) ;
#79 = VERTEX_POINT ( 'NONE', #52 ) ;
#80 = ORIENTED_EDGE ( 'NONE', *, *, #101, .F. ) ;
#81 = ORIENTED_EDGE ( 'NONE', *, *, #70, .T. ) ;
#82 = DIRECTION ( 'NONE',  ( 0.000000000000000000, 0.000000000000000000, 1.000000000000000000 ) ) ;
#83 = ORIENTED_EDGE ( 'NONE', *, *, #187, .F. ) ;
#84 = CIRCLE ( 'NONE', #241, 0.1999999999999996503 ) ;
#85 = DIRECTION ( 'NONE',  ( 1.000000000000000000, 0.000000000000000000, -0.000000000000000000 ) ) ;
#86 = PERSON_AND_ORGANIZATION ( #71, #167 ) ;
#87 = CYLINDRICAL_SURFACE ( 'NONE', #188, 8.000000000000000000 ) ;
#88 = CARTESIAN_POINT ( 'NONE',  ( -5.250000000000000888, 0.000000000000000000, 5.199999999999982414 ) ) ;
#89 = DIRECTION ( 'NONE',  ( 1.000000000000000000, 0.000000000000000000, 0.000000000000000000 ) ) ;
#90 = DIRECTION ( 'NONE',  ( 0.000000000000000000, 0.000000000000000000, 1.000000000000000000 ) ) ;
#91 = DIRECTION ( 'NONE',  ( -0.000000000000000000, -0.000000000000000000, -1.000000000000000000 ) ) ;
#92 = APPROVAL_STATUS ( 'not_yet_approved' ) ;
#93 = COORDINATED_UNIVERSAL_TIME_OFFSET ( 1, 0, .AHEAD. ) ;
#94 = AXIS2_PLACEMENT_3D ( 'NONE', #39, #132, #12 ) ;
#95 = PERSON_AND_ORGANIZATION ( #71, #167 ) ;
#96 = EDGE_CURVE ( 'NONE', #8, #33, #293, .T. ) ;
#97 = CIRCLE ( 'NONE', #26, 8.000000000000000000 ) ;
#98 = EDGE_CURVE ( 'NONE', #79, #54, #288, .T. ) ;
#99 = FACE_OUTER_BOUND ( 'NONE', #297, .T. ) ;
#100 = CYLINDRICAL_SURFACE ( 'NONE', #63, 5.250000000000000888 ) ;
#101 = EDGE_CURVE ( 'NONE', #218, #252, #65, .T. ) ;
#102 = ORIENTED_EDGE ( 'NONE', *, *, #98, .T. ) ;
#103 = ORIENTED_EDGE ( 'NONE', *, *, #273, .T. ) ;
#104 = FACE_OUTER_BOUND ( 'NONE', #224, .T. ) ;
#105 = DIRECTION ( 'NONE',  ( 0.000000000000000000, -1.000000000000000000, 0.000000000000000000 ) ) ;
#106 = CALENDAR_DATE ( 2022, 7, 7 ) ;
#107 = PLANE ( 'NONE',  #163 ) ;
#108 = APPROVAL ( #283, 'NEURÈENÝ' ) ;
#109 = DIRECTION ( 'NONE',  ( 0.000000000000000000, 0.000000000000000000, 1.000000000000000000 ) ) ;
#110 = CARTESIAN_POINT ( 'NONE',  ( 0.000000000000000000, 0.000000000000000000, 5.199999999999982414 ) ) ;
#111 = VECTOR ( 'NONE', #136, 1000.000000000000000 ) ;
#112 = CARTESIAN_POINT ( 'NONE',  ( 0.000000000000000000, 0.000000000000000000, 5.000000000000000000 ) ) ;
#113 = AXIS2_PLACEMENT_3D ( 'NONE', #201, #61, #176 ) ;
#114 = FACE_OUTER_BOUND ( 'NONE', #254, .T. ) ;
#115 = CALENDAR_DATE ( 2022, 7, 7 ) ;
#116 = DATE_AND_TIME ( #301, #14 ) ;
#117 = APPROVAL_DATE_TIME ( #116, #121 ) ;
#118 = PERSON_AND_ORGANIZATION ( #71, #167 ) ;
#119 = CC_DESIGN_PERSON_AND_ORGANIZATION_ASSIGNMENT ( #166, #51, ( #28 ) ) ;
#120 = CIRCLE ( 'NONE', #295, 8.000000000000000000 ) ;
#121 = APPROVAL ( #141, 'NEURÈENÝ' ) ;
#122 = AXIS2_PLACEMENT_3D ( 'NONE', #200, #34, #298 ) ;
#123 = CARTESIAN_POINT ( 'NONE',  ( -5.250000000000000888, 0.000000000000000000, 405.0000000000000000 ) ) ;
#124 = EDGE_LOOP ( 'NONE', ( #271, #152 ) ) ;
#125 = VERTEX_POINT ( 'NONE', #21 ) ;
#126 = DIRECTION ( 'NONE',  ( 0.000000000000000000, 0.000000000000000000, 1.000000000000000000 ) ) ;
#127 = ADVANCED_FACE ( 'NONE', ( #114 ), #2, .F. ) ;
#128 = ORIENTED_EDGE ( 'NONE', *, *, #96, .T. ) ;
#129 = CIRCLE ( 'NONE', #122, 8.000000000000000000 ) ;
#130 = ORIENTED_EDGE ( 'NONE', *, *, #98, .F. ) ;
#131 = DATE_TIME_ROLE ( 'classification_date' ) ;
#132 = DIRECTION ( 'NONE',  ( 1.224646799147353207E-16, 1.000000000000000000, -0.000000000000000000 ) ) ;
#133 = LOCAL_TIME ( 11, 50, 8.000000000000000000, #162 ) ;
#134 = DIRECTION ( 'NONE',  ( 1.000000000000000000, 0.000000000000000000, -0.000000000000000000 ) ) ;
#135 = DIRECTION ( 'NONE',  ( 1.000000000000000000, 0.000000000000000000, 0.000000000000000000 ) ) ;
#136 = DIRECTION ( 'NONE',  ( -0.000000000000000000, -0.000000000000000000, -1.000000000000000000 ) ) ;
#137 = ORIENTED_EDGE ( 'NONE', *, *, #258, .F. ) ;
#138 = EDGE_CURVE ( 'NONE', #58, #30, #175, .T. ) ;
#139 = CIRCLE ( 'NONE', #35, 5.250000000000000888 ) ;
#140 = CARTESIAN_POINT ( 'NONE',  ( -8.000000000000000000, 0.000000000000000000, 5.000000000000000000 ) ) ;
#141 = APPROVAL_STATUS ( 'not_yet_approved' ) ;
#142 = APPROVAL_ROLE ( '' ) ;
#143 = PRODUCT_DEFINITION_SHAPE ( 'NONE', 'NONE',  #165 ) ;
#144 = PERSON_AND_ORGANIZATION ( #71, #167 ) ;
#145 = MANIFOLD_SOLID_BREP ( 'Zaoblit1', #240 ) ;
#146 = CC_DESIGN_SECURITY_CLASSIFICATION ( #28, ( #209 ) ) ;
#147 = ADVANCED_FACE ( 'NONE', ( #183 ), #206, .T. ) ;
#148 = DIRECTION ( 'NONE',  ( -1.000000000000000000, 0.000000000000000000, 0.000000000000000000 ) ) ;
#149 = AXIS2_PLACEMENT_3D ( 'NONE', #264, #237, #47 ) ;
#150 = ORIENTED_EDGE ( 'NONE', *, *, #24, .T. ) ;
#151 = DIRECTION ( 'NONE',  ( -0.000000000000000000, -0.000000000000000000, -1.000000000000000000 ) ) ;
#152 = ORIENTED_EDGE ( 'NONE', *, *, #70, .F. ) ;
#153 = EDGE_LOOP ( 'NONE', ( #194, #174, #292, #172 ) ) ;
#154 = CC_DESIGN_APPROVAL ( #121, ( #209 ) ) ;
#155 = CARTESIAN_POINT ( 'NONE',  ( 0.000000000000000000, 0.000000000000000000, 5.199999999999982414 ) ) ;
#156 = ORIENTED_EDGE ( 'NONE', *, *, #24, .F. ) ;
#157 = DIRECTION ( 'NONE',  ( 0.000000000000000000, 0.000000000000000000, 1.000000000000000000 ) ) ;
#158 = VECTOR ( 'NONE', #303, 1000.000000000000000 ) ;
#159 = PLANE ( 'NONE',  #253 ) ;
#160 = CC_DESIGN_PERSON_AND_ORGANIZATION_ASSIGNMENT ( #238, #265, ( #22 ) ) ;
#161 = DATE_AND_TIME ( #106, #20 ) ;
#162 = COORDINATED_UNIVERSAL_TIME_OFFSET ( 1, 0, .AHEAD. ) ;
#163 = AXIS2_PLACEMENT_3D ( 'NONE', #299, #82, #85 ) ;
#164 = APPROVAL_ROLE ( '' ) ;
#165 = PRODUCT_DEFINITION ( 'NEZNÁMÝ', '', #209, #184 ) ;
#166 = PERSON_AND_ORGANIZATION ( #71, #167 ) ;
#167 = ORGANIZATION ( 'NEURÈENÝ', 'NEURÈENÝ', '' ) ;
#168 = CARTESIAN_POINT ( 'NONE',  ( 0.000000000000000000, 0.000000000000000000, 405.0000000000000000 ) ) ;
#169 = ORIENTED_EDGE ( 'NONE', *, *, #251, .T. ) ;
#170 = LINE ( 'NONE', #123, #250 ) ;
#171 = CIRCLE ( 'NONE', #113, 5.450000000000001066 ) ;
#172 = ORIENTED_EDGE ( 'NONE', *, *, #239, .T. ) ;
#173 = ORIENTED_EDGE ( 'NONE', *, *, #49, .F. ) ;
#174 = ORIENTED_EDGE ( 'NONE', *, *, #307, .F. ) ;
#175 = CIRCLE ( 'NONE', #46, 5.250000000000000888 ) ;
#176 = DIRECTION ( 'NONE',  ( 1.000000000000000000, 0.000000000000000000, 0.000000000000000000 ) ) ;
#177 = CC_DESIGN_PERSON_AND_ORGANIZATION_ASSIGNMENT ( #144, #23, ( #165 ) ) ;
#178 =( GEOMETRIC_REPRESENTATION_CONTEXT ( 3 ) GLOBAL_UNCERTAINTY_ASSIGNED_CONTEXT ( ( #45 ) ) GLOBAL_UNIT_ASSIGNED_CONTEXT ( ( #287, #249, #243 ) ) REPRESENTATION_CONTEXT ( 'NONE', 'WORKASPACE' ) );
#179 = FACE_OUTER_BOUND ( 'NONE', #269, .T. ) ;
#180 = DIRECTION ( 'NONE',  ( -1.000000000000000000, 0.000000000000000000, 0.000000000000000000 ) ) ;
#181 = CC_DESIGN_PERSON_AND_ORGANIZATION_ASSIGNMENT ( #86, #286, ( #209 ) ) ;
#182 = CARTESIAN_POINT ( 'NONE',  ( -8.000000000000000000, 0.000000000000000000, 5.000000000000000000 ) ) ;
#183 = FACE_OUTER_BOUND ( 'NONE', #36, .T. ) ;
#184 = DESIGN_CONTEXT ( 'detailed design', #256, 'design' ) ;
#185 = CARTESIAN_POINT ( 'NONE',  ( 0.000000000000000000, 0.000000000000000000, 5.000000000000000000 ) ) ;
#186 = APPLICATION_PROTOCOL_DEFINITION ( 'international standard', 'config_control_design', 1994, #235 ) ;
#187 = EDGE_CURVE ( 'NONE', #8, #218, #120, .T. ) ;
#188 = AXIS2_PLACEMENT_3D ( 'NONE', #62, #42, #180 ) ;
#189 = CALENDAR_DATE ( 2022, 7, 7 ) ;
#190 = APPROVAL ( #92, 'NEURÈENÝ' ) ;
#191 = APPROVAL_PERSON_ORGANIZATION ( #227, #108, #305 ) ;
#192 = CARTESIAN_POINT ( 'NONE',  ( 5.250000000000000888, 6.429395695523605139E-16, 405.0000000000000000 ) ) ;
#193 = CARTESIAN_POINT ( 'NONE',  ( 0.000000000000000000, 0.000000000000000000, 5.199999999999982414 ) ) ;
#194 = ORIENTED_EDGE ( 'NONE', *, *, #96, .F. ) ;
#195 = CARTESIAN_POINT ( 'NONE',  ( 0.000000000000000000, 0.000000000000000000, 405.0000000000000000 ) ) ;
#196 = DIRECTION ( 'NONE',  ( 0.000000000000000000, 0.000000000000000000, 1.000000000000000000 ) ) ;
#197 = TOROIDAL_SURFACE ( 'NONE', #266, 5.450000000000001066, 0.2000000000000000111 ) ;
#198 = VERTEX_POINT ( 'NONE', #88 ) ;
#199 = EDGE_LOOP ( 'NONE', ( #150, #76 ) ) ;
#200 = CARTESIAN_POINT ( 'NONE',  ( 0.000000000000000000, 0.000000000000000000, 5.000000000000000000 ) ) ;
#201 = CARTESIAN_POINT ( 'NONE',  ( 0.000000000000000000, 0.000000000000000000, 5.000000000000000000 ) ) ;
#202 = DIRECTION ( 'NONE',  ( 0.000000000000000000, 0.000000000000000000, -1.000000000000000000 ) ) ;
#203 = AXIS2_PLACEMENT_3D ( 'NONE', #248, #196, #78 ) ;
#204 = DATE_TIME_ROLE ( 'creation_date' ) ;
#205 = DIRECTION ( 'NONE',  ( 1.000000000000000000, 0.000000000000000000, 0.000000000000000000 ) ) ;
#206 = CYLINDRICAL_SURFACE ( 'NONE', #27, 8.000000000000000000 ) ;
#207 = DIRECTION ( 'NONE',  ( 1.000000000000000000, 0.000000000000000000, 0.000000000000000000 ) ) ;
#208 = DIRECTION ( 'NONE',  ( 0.000000000000000000, 0.000000000000000000, 1.000000000000000000 ) ) ;
#209 = PRODUCT_DEFINITION_FORMATION_WITH_SPECIFIED_SOURCE ( 'LIBOVOLNÝ', '', #22, .NOT_KNOWN. ) ;
#210 = DIRECTION ( 'NONE',  ( 0.000000000000000000, 0.000000000000000000, 1.000000000000000000 ) ) ;
#211 = SHAPE_DEFINITION_REPRESENTATION ( #143, #32 ) ;
#212 = MECHANICAL_CONTEXT ( 'NONE', #235, 'mechanical' ) ;
#213 = PERSON_AND_ORGANIZATION ( #71, #167 ) ;
#214 = CC_DESIGN_DATE_AND_TIME_ASSIGNMENT ( #161, #131, ( #28 ) ) ;
#215 = CC_DESIGN_APPROVAL ( #190, ( #165 ) ) ;
#216 = DIRECTION ( 'NONE',  ( 1.000000000000000000, 0.000000000000000000, 0.000000000000000000 ) ) ;
#217 = ADVANCED_FACE ( 'NONE', ( #279 ), #87, .T. ) ;
#218 = VERTEX_POINT ( 'NONE', #182 ) ;
#219 = CARTESIAN_POINT ( 'NONE',  ( 8.000000000000000000, 9.797174393178825657E-16, 5.000000000000000000 ) ) ;
#220 = CARTESIAN_POINT ( 'NONE',  ( 8.000000000000000000, 9.797174393178825657E-16, 5.000000000000000000 ) ) ;
#221 = ORIENTED_EDGE ( 'NONE', *, *, #273, .F. ) ;
#222 = EDGE_LOOP ( 'NONE', ( #245, #275, #103, #173 ) ) ;
#223 = CIRCLE ( 'NONE', #41, 5.250000000000000888 ) ;
#224 = EDGE_LOOP ( 'NONE', ( #247, #6 ) ) ;
#225 = EDGE_CURVE ( 'NONE', #198, #125, #7, .T. ) ;
#226 = DIRECTION ( 'NONE',  ( 0.000000000000000000, 0.000000000000000000, 1.000000000000000000 ) ) ;
#227 = PERSON_AND_ORGANIZATION ( #71, #167 ) ;
#228 = AXIS2_PLACEMENT_3D ( 'NONE', #16, #109, #205 ) ;
#229 = CARTESIAN_POINT ( 'NONE',  ( 0.000000000000000000, 0.000000000000000000, 0.000000000000000000 ) ) ;
#230 = EDGE_CURVE ( 'NONE', #58, #125, #64, .T. ) ;
#231 = DIRECTION ( 'NONE',  ( -0.000000000000000000, -0.000000000000000000, -1.000000000000000000 ) ) ;
#232 = CARTESIAN_POINT ( 'NONE',  ( 0.000000000000000000, 0.000000000000000000, 405.0000000000000000 ) ) ;
#233 = APPROVAL_DATE_TIME ( #67, #108 ) ;
#234 = ADVANCED_FACE ( 'NONE', ( #44 ), #159, .F. ) ;
#235 = APPLICATION_CONTEXT ( 'configuration controlled 3d designs of mechanical parts and assemblies' ) ;
#236 = COORDINATED_UNIVERSAL_TIME_OFFSET ( 1, 0, .AHEAD. ) ;
#237 = DIRECTION ( 'NONE',  ( 0.000000000000000000, 0.000000000000000000, 1.000000000000000000 ) ) ;
#238 = PERSON_AND_ORGANIZATION ( #71, #167 ) ;
#239 = EDGE_CURVE ( 'NONE', #252, #33, #268, .T. ) ;
#240 = CLOSED_SHELL ( 'NONE', ( #290, #38, #147, #217, #294, #234, #17, #281, #127 ) ) ;
#241 = AXIS2_PLACEMENT_3D ( 'NONE', #255, #105, #202 ) ;
#242 = DIRECTION ( 'NONE',  ( -0.000000000000000000, -0.000000000000000000, -1.000000000000000000 ) ) ;
#243 =( NAMED_UNIT ( * ) SI_UNIT ( $, .STERADIAN. ) SOLID_ANGLE_UNIT ( ) );
#244 = ORIENTED_EDGE ( 'NONE', *, *, #251, .F. ) ;
#245 = ORIENTED_EDGE ( 'NONE', *, *, #138, .F. ) ;
#246 = DIRECTION ( 'NONE',  ( -1.000000000000000000, 0.000000000000000000, 0.000000000000000000 ) ) ;
#247 = ORIENTED_EDGE ( 'NONE', *, *, #307, .T. ) ;
#248 = CARTESIAN_POINT ( 'NONE',  ( 0.000000000000000000, 0.000000000000000000, 5.000000000000000000 ) ) ;
#249 =( NAMED_UNIT ( * ) PLANE_ANGLE_UNIT ( ) SI_UNIT ( $, .RADIAN. ) );
#250 = VECTOR ( 'NONE', #242, 1000.000000000000000 ) ;
#251 = EDGE_CURVE ( 'NONE', #54, #79, #171, .T. ) ;
#252 = VERTEX_POINT ( 'NONE', #40 ) ;
#253 = AXIS2_PLACEMENT_3D ( 'NONE', #229, #90, #134 ) ;
#254 = EDGE_LOOP ( 'NONE', ( #137, #221, #56, #244 ) ) ;
#255 = CARTESIAN_POINT ( 'NONE',  ( 5.450000000000001066, 0.000000000000000000, 5.199999999999982414 ) ) ;
#256 = APPLICATION_CONTEXT ( 'configuration controlled 3d designs of mechanical parts and assemblies' ) ;
#257 = FACE_OUTER_BOUND ( 'NONE', #199, .T. ) ;
#258 = EDGE_CURVE ( 'NONE', #198, #54, #289, .T. ) ;
#259 = CC_DESIGN_APPROVAL ( #108, ( #28 ) ) ;
#260 = CARTESIAN_POINT ( 'NONE',  ( 0.000000000000000000, 0.000000000000000000, 5.199999999999982414 ) ) ;
#261 = DIRECTION ( 'NONE',  ( -0.000000000000000000, -0.000000000000000000, -1.000000000000000000 ) ) ;
#262 = SECURITY_CLASSIFICATION_LEVEL ( 'unclassified' ) ;
#263 = VECTOR ( 'NONE', #91, 1000.000000000000000 ) ;
#264 = CARTESIAN_POINT ( 'NONE',  ( 0.000000000000000000, 0.000000000000000000, 0.000000000000000000 ) ) ;
#265 = PERSON_AND_ORGANIZATION_ROLE ( 'design_owner' ) ;
#266 = AXIS2_PLACEMENT_3D ( 'NONE', #193, #226, #9 ) ;
#267 = DIRECTION ( 'NONE',  ( 1.000000000000000000, 0.000000000000000000, 0.000000000000000000 ) ) ;
#268 = CIRCLE ( 'NONE', #228, 8.000000000000000000 ) ;
#269 = EDGE_LOOP ( 'NONE', ( #11, #10, #130, #57 ) ) ;
#270 = CARTESIAN_POINT ( 'NONE',  ( 0.000000000000000000, 0.000000000000000000, 405.0000000000000000 ) ) ;
#271 = ORIENTED_EDGE ( 'NONE', *, *, #239, .F. ) ;
#272 = ORIENTED_EDGE ( 'NONE', *, *, #225, .T. ) ;
#273 = EDGE_CURVE ( 'NONE', #125, #198, #223, .T. ) ;
#274 = FACE_BOUND ( 'NONE', #4, .T. ) ;
#275 = ORIENTED_EDGE ( 'NONE', *, *, #230, .T. ) ;
#276 = PLANE ( 'NONE',  #203 ) ;
#277 = EDGE_CURVE ( 'NONE', #125, #79, #84, .T. ) ;
#278 = DIRECTION ( 'NONE',  ( 0.000000000000000000, 0.000000000000000000, 1.000000000000000000 ) ) ;
#279 = FACE_OUTER_BOUND ( 'NONE', #153, .T. ) ;
#280 = LOCAL_TIME ( 11, 50, 8.000000000000000000, #236 ) ;
#281 = ADVANCED_FACE ( 'NONE', ( #257 ), #107, .T. ) ;
#282 = CARTESIAN_POINT ( 'NONE',  ( 0.000000000000000000, 0.000000000000000000, 5.000000000000000000 ) ) ;
#283 = APPROVAL_STATUS ( 'not_yet_approved' ) ;
#284 = COORDINATED_UNIVERSAL_TIME_OFFSET ( 1, 0, .AHEAD. ) ;
#285 = LOCAL_TIME ( 11, 50, 8.000000000000000000, #93 ) ;
#286 = PERSON_AND_ORGANIZATION_ROLE ( 'creator' ) ;
#287 =( LENGTH_UNIT ( ) NAMED_UNIT ( * ) SI_UNIT ( .MILLI., .METRE. ) );
#288 = CIRCLE ( 'NONE', #59, 5.450000000000001066 ) ;
#289 = CIRCLE ( 'NONE', #94, 0.1999999999999996503 ) ;
#290 = ADVANCED_FACE ( 'NONE', ( #179 ), #197, .F. ) ;
#291 = FACE_OUTER_BOUND ( 'NONE', #222, .T. ) ;
#292 = ORIENTED_EDGE ( 'NONE', *, *, #101, .T. ) ;
#293 = LINE ( 'NONE', #220, #111 ) ;
#294 = ADVANCED_FACE ( 'NONE', ( #274, #104 ), #276, .T. ) ;
#295 = AXIS2_PLACEMENT_3D ( 'NONE', #112, #208, #135 ) ;
#296 = CARTESIAN_POINT ( 'NONE',  ( 0.000000000000000000, 0.000000000000000000, 0.000000000000000000 ) ) ;
#297 = EDGE_LOOP ( 'NONE', ( #31, #156, #60, #272 ) ) ;
#298 = DIRECTION ( 'NONE',  ( 1.000000000000000000, 0.000000000000000000, 0.000000000000000000 ) ) ;
#299 = CARTESIAN_POINT ( 'NONE',  ( 0.000000000000000000, 0.000000000000000000, 405.0000000000000000 ) ) ;
#300 = PRODUCT_RELATED_PRODUCT_CATEGORY ( 'detail', '', ( #22 ) ) ;
#301 = CALENDAR_DATE ( 2022, 7, 7 ) ;
#302 = DIRECTION ( 'NONE',  ( 1.000000000000000000, 0.000000000000000000, 0.000000000000000000 ) ) ;
#303 = DIRECTION ( 'NONE',  ( -0.000000000000000000, -0.000000000000000000, -1.000000000000000000 ) ) ;
#304 = DIRECTION ( 'NONE',  ( 0.000000000000000000, 0.000000000000000000, 1.000000000000000000 ) ) ;
#305 = APPROVAL_ROLE ( '' ) ;
#306 = COORDINATED_UNIVERSAL_TIME_OFFSET ( 1, 0, .AHEAD. ) ;
#307 = EDGE_CURVE ( 'NONE', #218, #8, #129, .T. ) ;
ENDSEC;
END-ISO-10303-21;
