ISO-10303-21;
HEADER;
FILE_DESCRIPTION (( 'STEP AP203' ),
    '1' );
FILE_NAME ('ecd5.STEP',
    '2023-02-12T10:53:29',
    ( '' ),
    ( '' ),
    'SwSTEP 2.0',
    'SolidWorks 2019',
    '' );
FILE_SCHEMA (( 'CONFIG_CONTROL_DESIGN' ));
ENDSEC;

DATA;
#1 = PERSON_AND_ORGANIZATION ( #105, #94 ) ;
#2 = CARTESIAN_POINT ( 'NONE',  ( -7.000000000000000888, 0.000000000000000000, 125.0000000000000000 ) ) ;
#3 = ORIENTED_EDGE ( 'NONE', *, *, #112, .T. ) ;
#4 = AXIS2_PLACEMENT_3D ( 'NONE', #49, #124, #227 ) ;
#5 = SECURITY_CLASSIFICATION ( '', '', #18 ) ;
#6 = EDGE_CURVE ( 'NONE', #210, #170, #201, .T. ) ;
#7 = VERTEX_POINT ( 'NONE', #39 ) ;
#8 = DIRECTION ( 'NONE',  ( 1.000000000000000000, 0.000000000000000000, 0.000000000000000000 ) ) ;
#9 = CYLINDRICAL_SURFACE ( 'NONE', #245, 7.000000000000000888 ) ;
#10 = CARTESIAN_POINT ( 'NONE',  ( 0.000000000000000000, 0.000000000000000000, 125.0000000000000000 ) ) ;
#11 = DATE_AND_TIME ( #179, #165 ) ;
#12 = DIRECTION ( 'NONE',  ( 0.000000000000000000, 0.000000000000000000, 1.000000000000000000 ) ) ;
#13 = DIRECTION ( 'NONE',  ( 0.000000000000000000, 0.000000000000000000, 1.000000000000000000 ) ) ;
#14 = AXIS2_PLACEMENT_3D ( 'NONE', #180, #12, #152 ) ;
#15 = ORIENTED_EDGE ( 'NONE', *, *, #167, .T. ) ;
#16 = DIRECTION ( 'NONE',  ( -0.000000000000000000, -0.000000000000000000, -1.000000000000000000 ) ) ;
#17 = ORIENTED_EDGE ( 'NONE', *, *, #207, .F. ) ;
#18 = SECURITY_CLASSIFICATION_LEVEL ( 'unclassified' ) ;
#19 = CARTESIAN_POINT ( 'NONE',  ( 0.000000000000000000, 0.000000000000000000, 125.0000000000000000 ) ) ;
#20 = AXIS2_PLACEMENT_3D ( 'NONE', #58, #176, #8 ) ;
#21 = PRODUCT_DEFINITION ( 'NEZNÁMÝ', '', #134, #211 ) ;
#22 = DATE_AND_TIME ( #192, #38 ) ;
#23 = CC_DESIGN_PERSON_AND_ORGANIZATION_ASSIGNMENT ( #111, #163, ( #5 ) ) ;
#24 = AXIS2_PLACEMENT_3D ( 'NONE', #29, #206, #157 ) ;
#25 = ORIENTED_EDGE ( 'NONE', *, *, #6, .F. ) ;
#26 = CIRCLE ( 'NONE', #53, 7.000000000000000888 ) ;
#27 = CARTESIAN_POINT ( 'NONE',  ( 0.000000000000000000, 0.000000000000000000, 125.0000000000000000 ) ) ;
#28 = DIRECTION ( 'NONE',  ( 1.000000000000000000, 0.000000000000000000, 0.000000000000000000 ) ) ;
#29 = CARTESIAN_POINT ( 'NONE',  ( 0.000000000000000000, 0.000000000000000000, 0.000000000000000000 ) ) ;
#30 = APPROVAL_ROLE ( '' ) ;
#31 = CYLINDRICAL_SURFACE ( 'NONE', #4, 11.00000000000000000 ) ;
#32 = CARTESIAN_POINT ( 'NONE',  ( 11.00000000000000000, 1.347111479062088405E-15, 7.000000000000000000 ) ) ;
#33 = EDGE_LOOP ( 'NONE', ( #197, #15, #195, #78 ) ) ;
#34 = DATE_AND_TIME ( #233, #230 ) ;
#35 = ORIENTED_EDGE ( 'NONE', *, *, #118, .F. ) ;
#36 = ADVANCED_FACE ( 'NONE', ( #95 ), #153, .T. ) ;
#37 = PERSON_AND_ORGANIZATION_ROLE ( 'creator' ) ;
#38 = LOCAL_TIME ( 11, 53, 29.00000000000000000, #109 ) ;
#39 = CARTESIAN_POINT ( 'NONE',  ( 11.00000000000000000, 1.347111479062088405E-15, 7.000000000000000000 ) ) ;
#40 = CIRCLE ( 'NONE', #177, 11.00000000000000000 ) ;
#41 = EDGE_CURVE ( 'NONE', #210, #88, #26, .T. ) ;
#42 = ORIENTED_EDGE ( 'NONE', *, *, #102, .F. ) ;
#43 = DATE_AND_TIME ( #119, #86 ) ;
#44 = CARTESIAN_POINT ( 'NONE',  ( -11.00000000000000000, 0.000000000000000000, 7.000000000000000000 ) ) ;
#45 =( NAMED_UNIT ( * ) SI_UNIT ( $, .STERADIAN. ) SOLID_ANGLE_UNIT ( ) );
#46 = CARTESIAN_POINT ( 'NONE',  ( 0.000000000000000000, 0.000000000000000000, 7.000000000000000000 ) ) ;
#47 = LINE ( 'NONE', #138, #184 ) ;
#48 = AXIS2_PLACEMENT_3D ( 'NONE', #114, #79, #115 ) ;
#49 = CARTESIAN_POINT ( 'NONE',  ( 0.000000000000000000, 0.000000000000000000, 7.000000000000000000 ) ) ;
#50 = DIRECTION ( 'NONE',  ( 1.000000000000000000, 0.000000000000000000, 0.000000000000000000 ) ) ;
#51 = APPROVAL_DATE_TIME ( #22, #136 ) ;
#52 = DATE_TIME_ROLE ( 'creation_date' ) ;
#53 = AXIS2_PLACEMENT_3D ( 'NONE', #10, #248, #250 ) ;
#54 = APPROVAL ( #228, 'NEURÈENÝ' ) ;
#55 = ORIENTED_EDGE ( 'NONE', *, *, #6, .T. ) ;
#56 = VECTOR ( 'NONE', #253, 1000.000000000000000 ) ;
#57 = EDGE_CURVE ( 'NONE', #110, #7, #239, .T. ) ;
#58 = CARTESIAN_POINT ( 'NONE',  ( 0.000000000000000000, 0.000000000000000000, 125.0000000000000000 ) ) ;
#59 = APPLICATION_PROTOCOL_DEFINITION ( 'international standard', 'config_control_design', 1994, #113 ) ;
#60 = APPROVAL_STATUS ( 'not_yet_approved' ) ;
#61 = MECHANICAL_CONTEXT ( 'NONE', #113, 'mechanical' ) ;
#62 = CARTESIAN_POINT ( 'NONE',  ( 7.000000000000000888, 8.572527594031474176E-16, 7.000000000000000000 ) ) ;
#63 = CARTESIAN_POINT ( 'NONE',  ( 7.000000000000000888, 8.572527594031474176E-16, 125.0000000000000000 ) ) ;
#64 = LOCAL_TIME ( 11, 53, 29.00000000000000000, #191 ) ;
#65 = CARTESIAN_POINT ( 'NONE',  ( 0.000000000000000000, 0.000000000000000000, 7.000000000000000000 ) ) ;
#66 = APPROVAL_STATUS ( 'not_yet_approved' ) ;
#67 = CARTESIAN_POINT ( 'NONE',  ( 0.000000000000000000, 0.000000000000000000, 7.000000000000000000 ) ) ;
#68 = ORIENTED_EDGE ( 'NONE', *, *, #207, .T. ) ;
#69 = CC_DESIGN_APPROVAL ( #54, ( #5 ) ) ;
#70 = DIRECTION ( 'NONE',  ( -1.000000000000000000, 0.000000000000000000, 0.000000000000000000 ) ) ;
#71 = ADVANCED_BREP_SHAPE_REPRESENTATION ( 'ecd5', ( #85, #198 ), #218 ) ;
#72 = CLOSED_SHELL ( 'NONE', ( #229, #92, #212, #254, #238, #98, #36 ) ) ;
#73 = CIRCLE ( 'NONE', #156, 7.000000000000000888 ) ;
#74 = DIRECTION ( 'NONE',  ( -0.000000000000000000, -0.000000000000000000, -1.000000000000000000 ) ) ;
#75 = CC_DESIGN_DATE_AND_TIME_ASSIGNMENT ( #34, #52, ( #21 ) ) ;
#76 = ORIENTED_EDGE ( 'NONE', *, *, #112, .F. ) ;
#77 = APPROVAL_PERSON_ORGANIZATION ( #249, #171, #121 ) ;
#78 = ORIENTED_EDGE ( 'NONE', *, *, #182, .F. ) ;
#79 = DIRECTION ( 'NONE',  ( 0.000000000000000000, 0.000000000000000000, 1.000000000000000000 ) ) ;
#80 = CARTESIAN_POINT ( 'NONE',  ( 0.000000000000000000, 0.000000000000000000, 125.0000000000000000 ) ) ;
#81 = AXIS2_PLACEMENT_3D ( 'NONE', #141, #13, #208 ) ;
#82 = CC_DESIGN_PERSON_AND_ORGANIZATION_ASSIGNMENT ( #236, #189, ( #134 ) ) ;
#83 = APPROVAL_DATE_TIME ( #11, #171 ) ;
#84 = EDGE_LOOP ( 'NONE', ( #17, #255 ) ) ;
#85 = MANIFOLD_SOLID_BREP ( 'Pøidat vysunutím3', #72 ) ;
#86 = LOCAL_TIME ( 11, 53, 29.00000000000000000, #202 ) ;
#87 = PERSON_AND_ORGANIZATION_ROLE ( 'creator' ) ;
#88 = VERTEX_POINT ( 'NONE', #63 ) ;
#89 = AXIS2_PLACEMENT_3D ( 'NONE', #27, #232, #143 ) ;
#90 = FACE_OUTER_BOUND ( 'NONE', #172, .T. ) ;
#91 = APPROVAL_ROLE ( '' ) ;
#92 = ADVANCED_FACE ( 'NONE', ( #137 ), #31, .T. ) ;
#93 = DATE_AND_TIME ( #242, #64 ) ;
#94 = ORGANIZATION ( 'NEURÈENÝ', 'NEURÈENÝ', '' ) ;
#95 = FACE_OUTER_BOUND ( 'NONE', #222, .T. ) ;
#96 = VERTEX_POINT ( 'NONE', #99 ) ;
#97 = VECTOR ( 'NONE', #74, 1000.000000000000000 ) ;
#98 = ADVANCED_FACE ( 'NONE', ( #209 ), #9, .T. ) ;
#99 = CARTESIAN_POINT ( 'NONE',  ( -11.00000000000000000, 0.000000000000000000, 0.000000000000000000 ) ) ;
#100 =( LENGTH_UNIT ( ) NAMED_UNIT ( * ) SI_UNIT ( .MILLI., .METRE. ) );
#101 = DIRECTION ( 'NONE',  ( 1.000000000000000000, 0.000000000000000000, 0.000000000000000000 ) ) ;
#102 = EDGE_CURVE ( 'NONE', #88, #210, #120, .T. ) ;
#103 = CARTESIAN_POINT ( 'NONE',  ( -11.00000000000000000, 0.000000000000000000, 7.000000000000000000 ) ) ;
#104 = CIRCLE ( 'NONE', #24, 11.00000000000000000 ) ;
#105 = PERSON ( 'NEURÈENÝ', 'NEURÈENÝ', 'NEURÈENÝ', ('NEURÈENÝ'), ('NEURÈENÝ'), ('NEURÈENÝ') ) ;
#106 = EDGE_CURVE ( 'NONE', #147, #96, #193, .T. ) ;
#107 = AXIS2_PLACEMENT_3D ( 'NONE', #187, #16, #162 ) ;
#108 = VERTEX_POINT ( 'NONE', #62 ) ;
#109 = COORDINATED_UNIVERSAL_TIME_OFFSET ( 1, 0, .AHEAD. ) ;
#110 = VERTEX_POINT ( 'NONE', #103 ) ;
#111 = PERSON_AND_ORGANIZATION ( #105, #94 ) ;
#112 = EDGE_CURVE ( 'NONE', #88, #108, #47, .T. ) ;
#113 = APPLICATION_CONTEXT ( 'configuration controlled 3d designs of mechanical parts and assemblies' ) ;
#114 = CARTESIAN_POINT ( 'NONE',  ( 0.000000000000000000, 0.000000000000000000, 0.000000000000000000 ) ) ;
#115 = DIRECTION ( 'NONE',  ( 1.000000000000000000, 0.000000000000000000, -0.000000000000000000 ) ) ;
#116 = ORIENTED_EDGE ( 'NONE', *, *, #182, .T. ) ;
#117 = PERSON_AND_ORGANIZATION ( #105, #94 ) ;
#118 = EDGE_CURVE ( 'NONE', #96, #147, #104, .T. ) ;
#119 = CALENDAR_DATE ( 2023, 12, 2 ) ;
#120 = CIRCLE ( 'NONE', #20, 7.000000000000000888 ) ;
#121 = APPROVAL_ROLE ( '' ) ;
#122 = DIRECTION ( 'NONE',  ( -0.000000000000000000, -0.000000000000000000, -1.000000000000000000 ) ) ;
#123 = DIRECTION ( 'NONE',  ( 0.000000000000000000, 0.000000000000000000, 1.000000000000000000 ) ) ;
#124 = DIRECTION ( 'NONE',  ( -0.000000000000000000, -0.000000000000000000, -1.000000000000000000 ) ) ;
#125 = PERSON_AND_ORGANIZATION ( #105, #94 ) ;
#126 = CIRCLE ( 'NONE', #81, 7.000000000000000888 ) ;
#127 = ORIENTED_EDGE ( 'NONE', *, *, #106, .F. ) ;
#128 = DIRECTION ( 'NONE',  ( 1.000000000000000000, 0.000000000000000000, 0.000000000000000000 ) ) ;
#129 = CYLINDRICAL_SURFACE ( 'NONE', #107, 11.00000000000000000 ) ;
#130 = CC_DESIGN_PERSON_AND_ORGANIZATION_ASSIGNMENT ( #125, #87, ( #134 ) ) ;
#131 = COORDINATED_UNIVERSAL_TIME_OFFSET ( 1, 0, .AHEAD. ) ;
#132 = EDGE_LOOP ( 'NONE', ( #196, #159, #116, #240 ) ) ;
#133 = PRODUCT_DEFINITION_SHAPE ( 'NONE', 'NONE',  #21 ) ;
#134 = PRODUCT_DEFINITION_FORMATION_WITH_SPECIFIED_SOURCE ( 'LIBOVOLNÝ', '', #199, .NOT_KNOWN. ) ;
#135 = LINE ( 'NONE', #32, #56 ) ;
#136 = APPROVAL ( #66, 'NEURÈENÝ' ) ;
#137 = FACE_OUTER_BOUND ( 'NONE', #33, .T. ) ;
#138 = CARTESIAN_POINT ( 'NONE',  ( 7.000000000000000888, 8.572527594031474176E-16, 125.0000000000000000 ) ) ;
#139 = CARTESIAN_POINT ( 'NONE',  ( 0.000000000000000000, 0.000000000000000000, 7.000000000000000000 ) ) ;
#140 = PERSON_AND_ORGANIZATION ( #105, #94 ) ;
#141 = CARTESIAN_POINT ( 'NONE',  ( 0.000000000000000000, 0.000000000000000000, 7.000000000000000000 ) ) ;
#142 = AXIS2_PLACEMENT_3D ( 'NONE', #65, #178, #155 ) ;
#143 = DIRECTION ( 'NONE',  ( 1.000000000000000000, 0.000000000000000000, -0.000000000000000000 ) ) ;
#144 = EDGE_LOOP ( 'NONE', ( #35, #127 ) ) ;
#145 = DIRECTION ( 'NONE',  ( 0.000000000000000000, 0.000000000000000000, 1.000000000000000000 ) ) ;
#146 = VECTOR ( 'NONE', #247, 1000.000000000000000 ) ;
#147 = VERTEX_POINT ( 'NONE', #200 ) ;
#148 = DATE_TIME_ROLE ( 'classification_date' ) ;
#149 = CC_DESIGN_PERSON_AND_ORGANIZATION_ASSIGNMENT ( #140, #183, ( #199 ) ) ;
#150 = CARTESIAN_POINT ( 'NONE',  ( 0.000000000000000000, 0.000000000000000000, 0.000000000000000000 ) ) ;
#151 = APPLICATION_PROTOCOL_DEFINITION ( 'international standard', 'config_control_design', 1994, #243 ) ;
#152 = DIRECTION ( 'NONE',  ( 1.000000000000000000, 0.000000000000000000, 0.000000000000000000 ) ) ;
#153 = PLANE ( 'NONE',  #89 ) ;
#154 = PERSON_AND_ORGANIZATION ( #105, #94 ) ;
#155 = DIRECTION ( 'NONE',  ( 1.000000000000000000, 0.000000000000000000, -0.000000000000000000 ) ) ;
#156 = AXIS2_PLACEMENT_3D ( 'NONE', #46, #226, #101 ) ;
#157 = DIRECTION ( 'NONE',  ( 1.000000000000000000, 0.000000000000000000, 0.000000000000000000 ) ) ;
#158 = EDGE_CURVE ( 'NONE', #108, #170, #126, .T. ) ;
#159 = ORIENTED_EDGE ( 'NONE', *, *, #57, .F. ) ;
#160 = CARTESIAN_POINT ( 'NONE',  ( -7.000000000000000888, 0.000000000000000000, 125.0000000000000000 ) ) ;
#161 = ORIENTED_EDGE ( 'NONE', *, *, #41, .T. ) ;
#162 = DIRECTION ( 'NONE',  ( -1.000000000000000000, 0.000000000000000000, 0.000000000000000000 ) ) ;
#163 = PERSON_AND_ORGANIZATION_ROLE ( 'classification_officer' ) ;
#164 = DIRECTION ( 'NONE',  ( -0.000000000000000000, -0.000000000000000000, -1.000000000000000000 ) ) ;
#165 = LOCAL_TIME ( 11, 53, 29.00000000000000000, #205 ) ;
#166 = AXIS2_PLACEMENT_3D ( 'NONE', #139, #123, #50 ) ;
#167 = EDGE_CURVE ( 'NONE', #7, #147, #135, .T. ) ;
#168 = CC_DESIGN_APPROVAL ( #136, ( #134 ) ) ;
#169 = PLANE ( 'NONE',  #48 ) ;
#170 = VERTEX_POINT ( 'NONE', #224 ) ;
#171 = APPROVAL ( #60, 'NEURÈENÝ' ) ;
#172 = EDGE_LOOP ( 'NONE', ( #42, #3, #220, #25 ) ) ;
#173 = APPROVAL_PERSON_ORGANIZATION ( #1, #136, #91 ) ;
#174 = EDGE_LOOP ( 'NONE', ( #188, #223 ) ) ;
#175 = ORIENTED_EDGE ( 'NONE', *, *, #41, .F. ) ;
#176 = DIRECTION ( 'NONE',  ( 0.000000000000000000, 0.000000000000000000, 1.000000000000000000 ) ) ;
#177 = AXIS2_PLACEMENT_3D ( 'NONE', #67, #145, #128 ) ;
#178 = DIRECTION ( 'NONE',  ( 0.000000000000000000, 0.000000000000000000, 1.000000000000000000 ) ) ;
#179 = CALENDAR_DATE ( 2023, 12, 2 ) ;
#180 = CARTESIAN_POINT ( 'NONE',  ( 0.000000000000000000, 0.000000000000000000, 0.000000000000000000 ) ) ;
#181 = SHAPE_DEFINITION_REPRESENTATION ( #133, #71 ) ;
#182 = EDGE_CURVE ( 'NONE', #110, #96, #221, .T. ) ;
#183 = PERSON_AND_ORGANIZATION_ROLE ( 'design_owner' ) ;
#184 = VECTOR ( 'NONE', #122, 1000.000000000000000 ) ;
#185 = DIRECTION ( 'NONE',  ( -1.000000000000000000, 0.000000000000000000, 0.000000000000000000 ) ) ;
#186 = EDGE_LOOP ( 'NONE', ( #76, #175, #55, #68 ) ) ;
#187 = CARTESIAN_POINT ( 'NONE',  ( 0.000000000000000000, 0.000000000000000000, 7.000000000000000000 ) ) ;
#188 = ORIENTED_EDGE ( 'NONE', *, *, #57, .T. ) ;
#189 = PERSON_AND_ORGANIZATION_ROLE ( 'design_supplier' ) ;
#190 = FACE_OUTER_BOUND ( 'NONE', #132, .T. ) ;
#191 = COORDINATED_UNIVERSAL_TIME_OFFSET ( 1, 0, .AHEAD. ) ;
#192 = CALENDAR_DATE ( 2023, 12, 2 ) ;
#193 = CIRCLE ( 'NONE', #14, 11.00000000000000000 ) ;
#194 = PRODUCT_RELATED_PRODUCT_CATEGORY ( 'detail', '', ( #199 ) ) ;
#195 = ORIENTED_EDGE ( 'NONE', *, *, #106, .T. ) ;
#196 = ORIENTED_EDGE ( 'NONE', *, *, #167, .F. ) ;
#197 = ORIENTED_EDGE ( 'NONE', *, *, #217, .F. ) ;
#198 = AXIS2_PLACEMENT_3D ( 'NONE', #150, #246, #28 ) ;
#199 = PRODUCT ( 'ecd5', 'ecd5', '', ( #61 ) ) ;
#200 = CARTESIAN_POINT ( 'NONE',  ( 11.00000000000000000, 1.347111479062088405E-15, 0.000000000000000000 ) ) ;
#201 = LINE ( 'NONE', #2, #97 ) ;
#202 = COORDINATED_UNIVERSAL_TIME_OFFSET ( 1, 0, .AHEAD. ) ;
#203 = APPROVAL_DATE_TIME ( #43, #54 ) ;
#204 = CC_DESIGN_APPROVAL ( #171, ( #21 ) ) ;
#205 = COORDINATED_UNIVERSAL_TIME_OFFSET ( 1, 0, .AHEAD. ) ;
#206 = DIRECTION ( 'NONE',  ( 0.000000000000000000, 0.000000000000000000, 1.000000000000000000 ) ) ;
#207 = EDGE_CURVE ( 'NONE', #170, #108, #73, .T. ) ;
#208 = DIRECTION ( 'NONE',  ( 1.000000000000000000, 0.000000000000000000, 0.000000000000000000 ) ) ;
#209 = FACE_OUTER_BOUND ( 'NONE', #186, .T. ) ;
#210 = VERTEX_POINT ( 'NONE', #160 ) ;
#211 = DESIGN_CONTEXT ( 'detailed design', #243, 'design' ) ;
#212 = ADVANCED_FACE ( 'NONE', ( #190 ), #129, .T. ) ;
#213 = AXIS2_PLACEMENT_3D ( 'NONE', #19, #164, #70 ) ;
#214 = ORIENTED_EDGE ( 'NONE', *, *, #102, .T. ) ;
#215 = CYLINDRICAL_SURFACE ( 'NONE', #213, 7.000000000000000888 ) ;
#216 = DIRECTION ( 'NONE',  ( -0.000000000000000000, -0.000000000000000000, -1.000000000000000000 ) ) ;
#217 = EDGE_CURVE ( 'NONE', #7, #110, #40, .T. ) ;
#218 =( GEOMETRIC_REPRESENTATION_CONTEXT ( 3 ) GLOBAL_UNCERTAINTY_ASSIGNED_CONTEXT ( ( #235 ) ) GLOBAL_UNIT_ASSIGNED_CONTEXT ( ( #100, #231, #45 ) ) REPRESENTATION_CONTEXT ( 'NONE', 'WORKASPACE' ) );
#219 = CC_DESIGN_SECURITY_CLASSIFICATION ( #5, ( #134 ) ) ;
#220 = ORIENTED_EDGE ( 'NONE', *, *, #158, .T. ) ;
#221 = LINE ( 'NONE', #44, #146 ) ;
#222 = EDGE_LOOP ( 'NONE', ( #161, #214 ) ) ;
#223 = ORIENTED_EDGE ( 'NONE', *, *, #217, .T. ) ;
#224 = CARTESIAN_POINT ( 'NONE',  ( -7.000000000000000888, 0.000000000000000000, 7.000000000000000000 ) ) ;
#225 = FACE_OUTER_BOUND ( 'NONE', #174, .T. ) ;
#226 = DIRECTION ( 'NONE',  ( 0.000000000000000000, 0.000000000000000000, 1.000000000000000000 ) ) ;
#227 = DIRECTION ( 'NONE',  ( -1.000000000000000000, 0.000000000000000000, 0.000000000000000000 ) ) ;
#228 = APPROVAL_STATUS ( 'not_yet_approved' ) ;
#229 = ADVANCED_FACE ( 'NONE', ( #90 ), #215, .T. ) ;
#230 = LOCAL_TIME ( 11, 53, 29.00000000000000000, #131 ) ;
#231 =( NAMED_UNIT ( * ) PLANE_ANGLE_UNIT ( ) SI_UNIT ( $, .RADIAN. ) );
#232 = DIRECTION ( 'NONE',  ( 0.000000000000000000, 0.000000000000000000, 1.000000000000000000 ) ) ;
#233 = CALENDAR_DATE ( 2023, 12, 2 ) ;
#234 = CC_DESIGN_DATE_AND_TIME_ASSIGNMENT ( #93, #148, ( #5 ) ) ;
#235 = UNCERTAINTY_MEASURE_WITH_UNIT (LENGTH_MEASURE( 1.000000000000000082E-05 ), #100, 'distance_accuracy_value', 'NONE');
#236 = PERSON_AND_ORGANIZATION ( #105, #94 ) ;
#237 = FACE_OUTER_BOUND ( 'NONE', #144, .T. ) ;
#238 = ADVANCED_FACE ( 'NONE', ( #237 ), #169, .F. ) ;
#239 = CIRCLE ( 'NONE', #166, 11.00000000000000000 ) ;
#240 = ORIENTED_EDGE ( 'NONE', *, *, #118, .T. ) ;
#241 = CC_DESIGN_PERSON_AND_ORGANIZATION_ASSIGNMENT ( #154, #37, ( #21 ) ) ;
#242 = CALENDAR_DATE ( 2023, 12, 2 ) ;
#243 = APPLICATION_CONTEXT ( 'configuration controlled 3d designs of mechanical parts and assemblies' ) ;
#244 = PLANE ( 'NONE',  #142 ) ;
#245 = AXIS2_PLACEMENT_3D ( 'NONE', #80, #216, #185 ) ;
#246 = DIRECTION ( 'NONE',  ( 0.000000000000000000, 0.000000000000000000, 1.000000000000000000 ) ) ;
#247 = DIRECTION ( 'NONE',  ( -0.000000000000000000, -0.000000000000000000, -1.000000000000000000 ) ) ;
#248 = DIRECTION ( 'NONE',  ( 0.000000000000000000, 0.000000000000000000, 1.000000000000000000 ) ) ;
#249 = PERSON_AND_ORGANIZATION ( #105, #94 ) ;
#250 = DIRECTION ( 'NONE',  ( 1.000000000000000000, 0.000000000000000000, 0.000000000000000000 ) ) ;
#251 = APPROVAL_PERSON_ORGANIZATION ( #117, #54, #30 ) ;
#252 = FACE_BOUND ( 'NONE', #84, .T. ) ;
#253 = DIRECTION ( 'NONE',  ( -0.000000000000000000, -0.000000000000000000, -1.000000000000000000 ) ) ;
#254 = ADVANCED_FACE ( 'NONE', ( #252, #225 ), #244, .T. ) ;
#255 = ORIENTED_EDGE ( 'NONE', *, *, #158, .F. ) ;
ENDSEC;
END-ISO-10303-21;
