ISO-10303-21;
HEADER;
FILE_DESCRIPTION (( 'STEP AP203' ),
    '1' );
FILE_NAME ('0d35.STEP',
    '2022-11-03T10:43:22',
    ( '' ),
    ( '' ),
    'SwSTEP 2.0',
    'SolidWorks 2019',
    '' );
FILE_SCHEMA (( 'CONFIG_CONTROL_DESIGN' ));
ENDSEC;

DATA;
#1 = EDGE_LOOP ( 'NONE', ( #139, #118, #39, #306 ) ) ;
#2 = AXIS2_PLACEMENT_3D ( 'NONE', #240, #50, #261 ) ;
#3 = FACE_OUTER_BOUND ( 'NONE', #307, .T. ) ;
#4 = DIRECTION ( 'NONE',  ( 0.000000000000000000, 0.000000000000000000, 1.000000000000000000 ) ) ;
#5 = CARTESIAN_POINT ( 'NONE',  ( -5.200000000000001066, 6.368163355566237368E-16, 5.199999999999982414 ) ) ;
#6 = FACE_OUTER_BOUND ( 'NONE', #166, .T. ) ;
#7 = DIRECTION ( 'NONE',  ( -0.000000000000000000, -0.000000000000000000, -1.000000000000000000 ) ) ;
#8 = ADVANCED_FACE ( 'NONE', ( #185 ), #189, .T. ) ;
#9 = FACE_OUTER_BOUND ( 'NONE', #213, .T. ) ;
#10 = PERSON_AND_ORGANIZATION ( #295, #177 ) ;
#11 = CIRCLE ( 'NONE', #101, 8.000000000000000000 ) ;
#12 = AXIS2_PLACEMENT_3D ( 'NONE', #221, #263, #220 ) ;
#13 = CALENDAR_DATE ( 2022, 3, 11 ) ;
#14 = CC_DESIGN_PERSON_AND_ORGANIZATION_ASSIGNMENT ( #34, #32, ( #149 ) ) ;
#15 = EDGE_CURVE ( 'NONE', #205, #61, #119, .T. ) ;
#16 = CLOSED_SHELL ( 'NONE', ( #279, #73, #8, #274, #259, #105, #297, #153, #217 ) ) ;
#17 = APPROVAL_STATUS ( 'not_yet_approved' ) ;
#18 = VERTEX_POINT ( 'NONE', #260 ) ;
#19 = DATE_AND_TIME ( #252, #288 ) ;
#20 = CIRCLE ( 'NONE', #2, 5.200000000000001066 ) ;
#21 = ORIENTED_EDGE ( 'NONE', *, *, #246, .F. ) ;
#22 = ORIENTED_EDGE ( 'NONE', *, *, #265, .T. ) ;
#23 = EDGE_CURVE ( 'NONE', #255, #87, #245, .T. ) ;
#24 = DIRECTION ( 'NONE',  ( 0.000000000000000000, -1.000000000000000000, 0.000000000000000000 ) ) ;
#25 = DIRECTION ( 'NONE',  ( -0.000000000000000000, -0.000000000000000000, -1.000000000000000000 ) ) ;
#26 = CARTESIAN_POINT ( 'NONE',  ( 0.000000000000000000, 0.000000000000000000, 5.199999999999982414 ) ) ;
#27 = CARTESIAN_POINT ( 'NONE',  ( 0.000000000000000000, 0.000000000000000000, 0.000000000000000000 ) ) ;
#28 = CARTESIAN_POINT ( 'NONE',  ( 8.000000000000000000, 9.797174393178825657E-16, 5.000000000000000000 ) ) ;
#29 = CC_DESIGN_PERSON_AND_ORGANIZATION_ASSIGNMENT ( #111, #206, ( #158 ) ) ;
#30 = APPLICATION_PROTOCOL_DEFINITION ( 'international standard', 'config_control_design', 1994, #226 ) ;
#31 = AXIS2_PLACEMENT_3D ( 'NONE', #74, #227, #152 ) ;
#32 = PERSON_AND_ORGANIZATION_ROLE ( 'creator' ) ;
#33 = CC_DESIGN_PERSON_AND_ORGANIZATION_ASSIGNMENT ( #10, #273, ( #103 ) ) ;
#34 = PERSON_AND_ORGANIZATION ( #295, #177 ) ;
#35 = EDGE_LOOP ( 'NONE', ( #282, #207, #210, #186 ) ) ;
#36 = AXIS2_PLACEMENT_3D ( 'NONE', #236, #67, #167 ) ;
#37 = PERSON_AND_ORGANIZATION ( #295, #177 ) ;
#38 = ORIENTED_EDGE ( 'NONE', *, *, #40, .T. ) ;
#39 = ORIENTED_EDGE ( 'NONE', *, *, #98, .T. ) ;
#40 = EDGE_CURVE ( 'NONE', #255, #92, #62, .T. ) ;
#41 = EDGE_CURVE ( 'NONE', #18, #87, #55, .T. ) ;
#42 = VERTEX_POINT ( 'NONE', #169 ) ;
#43 = VERTEX_POINT ( 'NONE', #197 ) ;
#44 = CIRCLE ( 'NONE', #76, 5.000000000000000888 ) ;
#45 = DIRECTION ( 'NONE',  ( 1.224646799147353207E-16, 1.000000000000000000, -0.000000000000000000 ) ) ;
#46 = CC_DESIGN_DATE_AND_TIME_ASSIGNMENT ( #204, #251, ( #65 ) ) ;
#47 = LINE ( 'NONE', #68, #91 ) ;
#48 = DIRECTION ( 'NONE',  ( 1.000000000000000000, 0.000000000000000000, 0.000000000000000000 ) ) ;
#49 = DIRECTION ( 'NONE',  ( -0.000000000000000000, -0.000000000000000000, -1.000000000000000000 ) ) ;
#50 = DIRECTION ( 'NONE',  ( -0.000000000000000000, -0.000000000000000000, -1.000000000000000000 ) ) ;
#51 = FACE_OUTER_BOUND ( 'NONE', #141, .T. ) ;
#52 = DIRECTION ( 'NONE',  ( 1.000000000000000000, 0.000000000000000000, 0.000000000000000000 ) ) ;
#53 = DIRECTION ( 'NONE',  ( -0.000000000000000000, -0.000000000000000000, -1.000000000000000000 ) ) ;
#54 = PERSON_AND_ORGANIZATION ( #295, #177 ) ;
#55 = CIRCLE ( 'NONE', #175, 8.000000000000000000 ) ;
#56 = EDGE_CURVE ( 'NONE', #92, #255, #237, .T. ) ;
#57 = DIRECTION ( 'NONE',  ( 0.000000000000000000, 0.000000000000000000, 1.000000000000000000 ) ) ;
#58 = PERSON_AND_ORGANIZATION ( #295, #177 ) ;
#59 = ORIENTED_EDGE ( 'NONE', *, *, #131, .F. ) ;
#60 = DATE_AND_TIME ( #13, #144 ) ;
#61 = VERTEX_POINT ( 'NONE', #171 ) ;
#62 = CIRCLE ( 'NONE', #156, 8.000000000000000000 ) ;
#63 = VERTEX_POINT ( 'NONE', #94 ) ;
#64 = CIRCLE ( 'NONE', #172, 0.1999999999999996503 ) ;
#65 = SECURITY_CLASSIFICATION ( '', '', #254 ) ;
#66 = DIRECTION ( 'NONE',  ( -0.000000000000000000, -0.000000000000000000, -1.000000000000000000 ) ) ;
#67 = DIRECTION ( 'NONE',  ( 0.000000000000000000, 0.000000000000000000, 1.000000000000000000 ) ) ;
#68 = CARTESIAN_POINT ( 'NONE',  ( 5.000000000000000888, 6.123233995736767268E-16, 620.0000000000000000 ) ) ;
#69 =( GEOMETRIC_REPRESENTATION_CONTEXT ( 3 ) GLOBAL_UNCERTAINTY_ASSIGNED_CONTEXT ( ( #286 ) ) GLOBAL_UNIT_ASSIGNED_CONTEXT ( ( #272, #77, #174 ) ) REPRESENTATION_CONTEXT ( 'NONE', 'WORKASPACE' ) );
#70 = DIRECTION ( 'NONE',  ( 1.000000000000000000, 0.000000000000000000, 0.000000000000000000 ) ) ;
#71 = DIRECTION ( 'NONE',  ( 0.000000000000000000, 0.000000000000000000, 1.000000000000000000 ) ) ;
#72 = PRODUCT_DEFINITION_SHAPE ( 'NONE', 'NONE',  #149 ) ;
#73 = ADVANCED_FACE ( 'NONE', ( #264 ), #266, .T. ) ;
#74 = CARTESIAN_POINT ( 'NONE',  ( 0.000000000000000000, 0.000000000000000000, 620.0000000000000000 ) ) ;
#75 = CARTESIAN_POINT ( 'NONE',  ( 0.000000000000000000, 0.000000000000000000, 5.000000000000000000 ) ) ;
#76 = AXIS2_PLACEMENT_3D ( 'NONE', #146, #145, #215 ) ;
#77 =( NAMED_UNIT ( * ) PLANE_ANGLE_UNIT ( ) SI_UNIT ( $, .RADIAN. ) );
#78 = APPROVAL ( #17, 'NEURÈENÝ' ) ;
#79 = DIRECTION ( 'NONE',  ( -1.000000000000000000, 0.000000000000000000, 0.000000000000000000 ) ) ;
#80 = PLANE ( 'NONE',  #214 ) ;
#81 = CARTESIAN_POINT ( 'NONE',  ( 0.000000000000000000, 0.000000000000000000, 620.0000000000000000 ) ) ;
#82 = APPROVAL_ROLE ( '' ) ;
#83 = EDGE_LOOP ( 'NONE', ( #283, #164, #143, #256 ) ) ;
#84 = CIRCLE ( 'NONE', #183, 5.200000000000001066 ) ;
#85 = CC_DESIGN_SECURITY_CLASSIFICATION ( #65, ( #158 ) ) ;
#86 = PERSON_AND_ORGANIZATION_ROLE ( 'creator' ) ;
#87 = VERTEX_POINT ( 'NONE', #97 ) ;
#88 = EDGE_CURVE ( 'NONE', #87, #18, #11, .T. ) ;
#89 = ORIENTED_EDGE ( 'NONE', *, *, #41, .F. ) ;
#90 = ORIENTED_EDGE ( 'NONE', *, *, #187, .T. ) ;
#91 = VECTOR ( 'NONE', #7, 1000.000000000000000 ) ;
#92 = VERTEX_POINT ( 'NONE', #173 ) ;
#93 = ADVANCED_BREP_SHAPE_REPRESENTATION ( '0d35', ( #125, #257 ), #69 ) ;
#94 = CARTESIAN_POINT ( 'NONE',  ( -5.200000000000001066, 6.368163355566237368E-16, 4.999999999999991118 ) ) ;
#95 = DIRECTION ( 'NONE',  ( 1.000000000000000000, 0.000000000000000000, 0.000000000000000000 ) ) ;
#96 = AXIS2_PLACEMENT_3D ( 'NONE', #26, #126, #99 ) ;
#97 = CARTESIAN_POINT ( 'NONE',  ( 8.000000000000000000, 9.797174393178825657E-16, 0.000000000000000000 ) ) ;
#98 = EDGE_CURVE ( 'NONE', #42, #302, #142, .T. ) ;
#99 = DIRECTION ( 'NONE',  ( 1.000000000000000000, 0.000000000000000000, 0.000000000000000000 ) ) ;
#100 = APPROVAL ( #301, 'NEURÈENÝ' ) ;
#101 = AXIS2_PLACEMENT_3D ( 'NONE', #190, #194, #291 ) ;
#102 = CARTESIAN_POINT ( 'NONE',  ( 5.000000000000000888, 6.123233995736767268E-16, 620.0000000000000000 ) ) ;
#103 = PRODUCT ( '0d35', '0d35', '', ( #225 ) ) ;
#104 = DIRECTION ( 'NONE',  ( -0.000000000000000000, -0.000000000000000000, -1.000000000000000000 ) ) ;
#105 = ADVANCED_FACE ( 'NONE', ( #6 ), #124, .F. ) ;
#106 = CARTESIAN_POINT ( 'NONE',  ( 0.000000000000000000, 0.000000000000000000, 0.000000000000000000 ) ) ;
#107 = APPROVAL_ROLE ( '' ) ;
#108 = LINE ( 'NONE', #200, #262 ) ;
#109 = AXIS2_PLACEMENT_3D ( 'NONE', #5, #45, #239 ) ;
#110 = APPLICATION_PROTOCOL_DEFINITION ( 'international standard', 'config_control_design', 1994, #250 ) ;
#111 = PERSON_AND_ORGANIZATION ( #295, #177 ) ;
#112 = DESIGN_CONTEXT ( 'detailed design', #226, 'design' ) ;
#113 = APPROVAL_DATE_TIME ( #19, #100 ) ;
#114 = EDGE_LOOP ( 'NONE', ( #188, #232, #182, #234 ) ) ;
#115 = CC_DESIGN_APPROVAL ( #78, ( #158 ) ) ;
#116 = PERSON_AND_ORGANIZATION ( #295, #177 ) ;
#117 = ORIENTED_EDGE ( 'NONE', *, *, #216, .F. ) ;
#118 = ORIENTED_EDGE ( 'NONE', *, *, #131, .T. ) ;
#119 = CIRCLE ( 'NONE', #36, 5.000000000000000888 ) ;
#120 = CC_DESIGN_APPROVAL ( #193, ( #149 ) ) ;
#121 = APPROVAL_PERSON_ORGANIZATION ( #116, #100, #231 ) ;
#122 = CARTESIAN_POINT ( 'NONE',  ( 0.000000000000000000, 0.000000000000000000, 620.0000000000000000 ) ) ;
#123 = DIRECTION ( 'NONE',  ( 0.000000000000000000, 0.000000000000000000, -1.000000000000000000 ) ) ;
#124 = PLANE ( 'NONE',  #12 ) ;
#125 = MANIFOLD_SOLID_BREP ( 'Zaoblit1', #16 ) ;
#126 = DIRECTION ( 'NONE',  ( 0.000000000000000000, 0.000000000000000000, 1.000000000000000000 ) ) ;
#127 = DIRECTION ( 'NONE',  ( -1.000000000000000000, 0.000000000000000000, 0.000000000000000000 ) ) ;
#128 = FACE_OUTER_BOUND ( 'NONE', #114, .T. ) ;
#129 = CC_DESIGN_PERSON_AND_ORGANIZATION_ASSIGNMENT ( #138, #135, ( #65 ) ) ;
#130 = DIRECTION ( 'NONE',  ( 1.000000000000000000, 0.000000000000000000, 0.000000000000000000 ) ) ;
#131 = EDGE_CURVE ( 'NONE', #205, #42, #47, .T. ) ;
#132 = COORDINATED_UNIVERSAL_TIME_OFFSET ( 1, 0, .AHEAD. ) ;
#133 = CIRCLE ( 'NONE', #109, 0.1999999999999996503 ) ;
#134 = COORDINATED_UNIVERSAL_TIME_OFFSET ( 1, 0, .AHEAD. ) ;
#135 = PERSON_AND_ORGANIZATION_ROLE ( 'classification_officer' ) ;
#136 = ORIENTED_EDGE ( 'NONE', *, *, #187, .F. ) ;
#137 = EDGE_CURVE ( 'NONE', #302, #42, #44, .T. ) ;
#138 = PERSON_AND_ORGANIZATION ( #295, #177 ) ;
#139 = ORIENTED_EDGE ( 'NONE', *, *, #15, .F. ) ;
#140 = ORIENTED_EDGE ( 'NONE', *, *, #268, .T. ) ;
#141 = EDGE_LOOP ( 'NONE', ( #59, #21, #140, #161 ) ) ;
#142 = CIRCLE ( 'NONE', #222, 5.000000000000000888 ) ;
#143 = ORIENTED_EDGE ( 'NONE', *, *, #216, .T. ) ;
#144 = LOCAL_TIME ( 11, 43, 22.00000000000000000, #209 ) ;
#145 = DIRECTION ( 'NONE',  ( 0.000000000000000000, 0.000000000000000000, 1.000000000000000000 ) ) ;
#146 = CARTESIAN_POINT ( 'NONE',  ( 0.000000000000000000, 0.000000000000000000, 5.199999999999982414 ) ) ;
#147 = CARTESIAN_POINT ( 'NONE',  ( 5.200000000000001066, 0.000000000000000000, 5.199999999999982414 ) ) ;
#148 = CARTESIAN_POINT ( 'NONE',  ( 0.000000000000000000, 0.000000000000000000, 5.199999999999982414 ) ) ;
#149 = PRODUCT_DEFINITION ( 'NEZNÁMÝ', '', #158, #112 ) ;
#150 = DIRECTION ( 'NONE',  ( 0.000000000000000000, 0.000000000000000000, 1.000000000000000000 ) ) ;
#151 = DIRECTION ( 'NONE',  ( 0.000000000000000000, 0.000000000000000000, 1.000000000000000000 ) ) ;
#152 = DIRECTION ( 'NONE',  ( 1.000000000000000000, 0.000000000000000000, 0.000000000000000000 ) ) ;
#153 = ADVANCED_FACE ( 'NONE', ( #3 ), #287, .T. ) ;
#154 = PRODUCT_RELATED_PRODUCT_CATEGORY ( 'detail', '', ( #103 ) ) ;
#155 = APPROVAL_STATUS ( 'not_yet_approved' ) ;
#156 = AXIS2_PLACEMENT_3D ( 'NONE', #75, #150, #95 ) ;
#157 = DIRECTION ( 'NONE',  ( -1.000000000000000000, 0.000000000000000000, 0.000000000000000000 ) ) ;
#158 = PRODUCT_DEFINITION_FORMATION_WITH_SPECIFIED_SOURCE ( 'LIBOVOLNÝ', '', #103, .NOT_KNOWN. ) ;
#159 = CALENDAR_DATE ( 2022, 3, 11 ) ;
#160 = CC_DESIGN_DATE_AND_TIME_ASSIGNMENT ( #162, #230, ( #149 ) ) ;
#161 = ORIENTED_EDGE ( 'NONE', *, *, #137, .T. ) ;
#162 = DATE_AND_TIME ( #181, #292 ) ;
#163 = ORIENTED_EDGE ( 'NONE', *, *, #137, .F. ) ;
#164 = ORIENTED_EDGE ( 'NONE', *, *, #98, .F. ) ;
#165 = TOROIDAL_SURFACE ( 'NONE', #243, 5.200000000000001066, 0.2000000000000000111 ) ;
#166 = EDGE_LOOP ( 'NONE', ( #89, #238 ) ) ;
#167 = DIRECTION ( 'NONE',  ( 1.000000000000000000, 0.000000000000000000, 0.000000000000000000 ) ) ;
#168 = CARTESIAN_POINT ( 'NONE',  ( 0.000000000000000000, 0.000000000000000000, 620.0000000000000000 ) ) ;
#169 = CARTESIAN_POINT ( 'NONE',  ( 5.000000000000000888, 6.123233995736767268E-16, 5.199999999999982414 ) ) ;
#170 = DIRECTION ( 'NONE',  ( 1.000000000000000000, 0.000000000000000000, 0.000000000000000000 ) ) ;
#171 = CARTESIAN_POINT ( 'NONE',  ( -5.000000000000000888, 0.000000000000000000, 620.0000000000000000 ) ) ;
#172 = AXIS2_PLACEMENT_3D ( 'NONE', #147, #24, #123 ) ;
#173 = CARTESIAN_POINT ( 'NONE',  ( -8.000000000000000000, 0.000000000000000000, 5.000000000000000000 ) ) ;
#174 =( NAMED_UNIT ( * ) SI_UNIT ( $, .STERADIAN. ) SOLID_ANGLE_UNIT ( ) );
#175 = AXIS2_PLACEMENT_3D ( 'NONE', #27, #4, #70 ) ;
#176 = CARTESIAN_POINT ( 'NONE',  ( 0.000000000000000000, 0.000000000000000000, 5.000000000000000000 ) ) ;
#177 = ORGANIZATION ( 'NEURÈENÝ', 'NEURÈENÝ', '' ) ;
#178 = DIRECTION ( 'NONE',  ( 1.000000000000000000, 0.000000000000000000, -0.000000000000000000 ) ) ;
#179 = CARTESIAN_POINT ( 'NONE',  ( 0.000000000000000000, 0.000000000000000000, 5.000000000000000000 ) ) ;
#180 = CC_DESIGN_PERSON_AND_ORGANIZATION_ASSIGNMENT ( #37, #86, ( #158 ) ) ;
#181 = CALENDAR_DATE ( 2022, 3, 11 ) ;
#182 = ORIENTED_EDGE ( 'NONE', *, *, #242, .T. ) ;
#183 = AXIS2_PLACEMENT_3D ( 'NONE', #269, #53, #52 ) ;
#184 = COORDINATED_UNIVERSAL_TIME_OFFSET ( 1, 0, .AHEAD. ) ;
#185 = FACE_OUTER_BOUND ( 'NONE', #35, .T. ) ;
#186 = ORIENTED_EDGE ( 'NONE', *, *, #242, .F. ) ;
#187 = EDGE_CURVE ( 'NONE', #43, #63, #20, .T. ) ;
#188 = ORIENTED_EDGE ( 'NONE', *, *, #23, .F. ) ;
#189 = CYLINDRICAL_SURFACE ( 'NONE', #212, 8.000000000000000000 ) ;
#190 = CARTESIAN_POINT ( 'NONE',  ( 0.000000000000000000, 0.000000000000000000, 0.000000000000000000 ) ) ;
#191 = VECTOR ( 'NONE', #25, 1000.000000000000000 ) ;
#192 = EDGE_CURVE ( 'NONE', #302, #63, #133, .T. ) ;
#193 = APPROVAL ( #155, 'NEURÈENÝ' ) ;
#194 = DIRECTION ( 'NONE',  ( 0.000000000000000000, 0.000000000000000000, 1.000000000000000000 ) ) ;
#195 = CARTESIAN_POINT ( 'NONE',  ( 8.000000000000000000, 9.797174393178825657E-16, 5.000000000000000000 ) ) ;
#196 = CARTESIAN_POINT ( 'NONE',  ( -8.000000000000000000, 0.000000000000000000, 5.000000000000000000 ) ) ;
#197 = CARTESIAN_POINT ( 'NONE',  ( 5.200000000000001066, 0.000000000000000000, 4.999999999999991118 ) ) ;
#198 = VECTOR ( 'NONE', #290, 1000.000000000000000 ) ;
#199 = LOCAL_TIME ( 11, 43, 22.00000000000000000, #276 ) ;
#200 = CARTESIAN_POINT ( 'NONE',  ( -5.000000000000000888, 0.000000000000000000, 620.0000000000000000 ) ) ;
#201 = DIRECTION ( 'NONE',  ( 0.000000000000000000, 0.000000000000000000, 1.000000000000000000 ) ) ;
#202 = DIRECTION ( 'NONE',  ( -0.000000000000000000, -0.000000000000000000, -1.000000000000000000 ) ) ;
#203 = DATE_AND_TIME ( #228, #247 ) ;
#204 = DATE_AND_TIME ( #159, #199 ) ;
#205 = VERTEX_POINT ( 'NONE', #102 ) ;
#206 = PERSON_AND_ORGANIZATION_ROLE ( 'design_supplier' ) ;
#207 = ORIENTED_EDGE ( 'NONE', *, *, #23, .T. ) ;
#208 = AXIS2_PLACEMENT_3D ( 'NONE', #81, #202, #79 ) ;
#209 = COORDINATED_UNIVERSAL_TIME_OFFSET ( 1, 0, .AHEAD. ) ;
#210 = ORIENTED_EDGE ( 'NONE', *, *, #88, .T. ) ;
#211 = CARTESIAN_POINT ( 'NONE',  ( 0.000000000000000000, 0.000000000000000000, 5.000000000000000000 ) ) ;
#212 = AXIS2_PLACEMENT_3D ( 'NONE', #211, #66, #284 ) ;
#213 = EDGE_LOOP ( 'NONE', ( #253, #38 ) ) ;
#214 = AXIS2_PLACEMENT_3D ( 'NONE', #176, #57, #178 ) ;
#215 = DIRECTION ( 'NONE',  ( 1.000000000000000000, 0.000000000000000000, 0.000000000000000000 ) ) ;
#216 = EDGE_CURVE ( 'NONE', #42, #43, #64, .T. ) ;
#217 = ADVANCED_FACE ( 'NONE', ( #219 ), #296, .F. ) ;
#218 = AXIS2_PLACEMENT_3D ( 'NONE', #289, #71, #170 ) ;
#219 = FACE_OUTER_BOUND ( 'NONE', #83, .T. ) ;
#220 = DIRECTION ( 'NONE',  ( 1.000000000000000000, 0.000000000000000000, -0.000000000000000000 ) ) ;
#221 = CARTESIAN_POINT ( 'NONE',  ( 0.000000000000000000, 0.000000000000000000, 0.000000000000000000 ) ) ;
#222 = AXIS2_PLACEMENT_3D ( 'NONE', #148, #285, #48 ) ;
#223 = CARTESIAN_POINT ( 'NONE',  ( -5.000000000000000888, 0.000000000000000000, 5.199999999999982414 ) ) ;
#224 = AXIS2_PLACEMENT_3D ( 'NONE', #168, #244, #267 ) ;
#225 = MECHANICAL_CONTEXT ( 'NONE', #250, 'mechanical' ) ;
#226 = APPLICATION_CONTEXT ( 'configuration controlled 3d designs of mechanical parts and assemblies' ) ;
#227 = DIRECTION ( 'NONE',  ( 0.000000000000000000, 0.000000000000000000, 1.000000000000000000 ) ) ;
#228 = CALENDAR_DATE ( 2022, 3, 11 ) ;
#229 = CIRCLE ( 'NONE', #31, 5.000000000000000888 ) ;
#230 = DATE_TIME_ROLE ( 'creation_date' ) ;
#231 = APPROVAL_ROLE ( '' ) ;
#232 = ORIENTED_EDGE ( 'NONE', *, *, #56, .F. ) ;
#233 = APPROVAL_DATE_TIME ( #203, #193 ) ;
#234 = ORIENTED_EDGE ( 'NONE', *, *, #41, .T. ) ;
#235 = EDGE_LOOP ( 'NONE', ( #163, #278, #136, #117 ) ) ;
#236 = CARTESIAN_POINT ( 'NONE',  ( 0.000000000000000000, 0.000000000000000000, 620.0000000000000000 ) ) ;
#237 = CIRCLE ( 'NONE', #218, 8.000000000000000000 ) ;
#238 = ORIENTED_EDGE ( 'NONE', *, *, #88, .F. ) ;
#239 = DIRECTION ( 'NONE',  ( -1.000000000000000000, 1.224646799147353454E-16, 0.000000000000000000 ) ) ;
#240 = CARTESIAN_POINT ( 'NONE',  ( 0.000000000000000000, 0.000000000000000000, 5.000000000000000000 ) ) ;
#241 = LINE ( 'NONE', #196, #198 ) ;
#242 = EDGE_CURVE ( 'NONE', #92, #18, #241, .T. ) ;
#243 = AXIS2_PLACEMENT_3D ( 'NONE', #248, #151, #249 ) ;
#244 = DIRECTION ( 'NONE',  ( 0.000000000000000000, 0.000000000000000000, 1.000000000000000000 ) ) ;
#245 = LINE ( 'NONE', #195, #191 ) ;
#246 = EDGE_CURVE ( 'NONE', #61, #205, #229, .T. ) ;
#247 = LOCAL_TIME ( 11, 43, 22.00000000000000000, #132 ) ;
#248 = CARTESIAN_POINT ( 'NONE',  ( 0.000000000000000000, 0.000000000000000000, 5.199999999999982414 ) ) ;
#249 = DIRECTION ( 'NONE',  ( 1.000000000000000000, 0.000000000000000000, 0.000000000000000000 ) ) ;
#250 = APPLICATION_CONTEXT ( 'configuration controlled 3d designs of mechanical parts and assemblies' ) ;
#251 = DATE_TIME_ROLE ( 'classification_date' ) ;
#252 = CALENDAR_DATE ( 2022, 3, 11 ) ;
#253 = ORIENTED_EDGE ( 'NONE', *, *, #56, .T. ) ;
#254 = SECURITY_CLASSIFICATION_LEVEL ( 'unclassified' ) ;
#255 = VERTEX_POINT ( 'NONE', #28 ) ;
#256 = ORIENTED_EDGE ( 'NONE', *, *, #265, .F. ) ;
#257 = AXIS2_PLACEMENT_3D ( 'NONE', #106, #201, #130 ) ;
#258 = ORIENTED_EDGE ( 'NONE', *, *, #246, .T. ) ;
#259 = ADVANCED_FACE ( 'NONE', ( #270, #9 ), #80, .T. ) ;
#260 = CARTESIAN_POINT ( 'NONE',  ( -8.000000000000000000, 0.000000000000000000, 0.000000000000000000 ) ) ;
#261 = DIRECTION ( 'NONE',  ( 1.000000000000000000, 0.000000000000000000, 0.000000000000000000 ) ) ;
#262 = VECTOR ( 'NONE', #104, 1000.000000000000000 ) ;
#263 = DIRECTION ( 'NONE',  ( 0.000000000000000000, 0.000000000000000000, 1.000000000000000000 ) ) ;
#264 = FACE_OUTER_BOUND ( 'NONE', #1, .T. ) ;
#265 = EDGE_CURVE ( 'NONE', #63, #43, #84, .T. ) ;
#266 = CYLINDRICAL_SURFACE ( 'NONE', #281, 5.000000000000000888 ) ;
#267 = DIRECTION ( 'NONE',  ( 1.000000000000000000, 0.000000000000000000, -0.000000000000000000 ) ) ;
#268 = EDGE_CURVE ( 'NONE', #61, #302, #108, .T. ) ;
#269 = CARTESIAN_POINT ( 'NONE',  ( 0.000000000000000000, 0.000000000000000000, 5.000000000000000000 ) ) ;
#270 = FACE_BOUND ( 'NONE', #280, .T. ) ;
#271 = AXIS2_PLACEMENT_3D ( 'NONE', #179, #300, #157 ) ;
#272 =( LENGTH_UNIT ( ) NAMED_UNIT ( * ) SI_UNIT ( .MILLI., .METRE. ) );
#273 = PERSON_AND_ORGANIZATION_ROLE ( 'design_owner' ) ;
#274 = ADVANCED_FACE ( 'NONE', ( #128 ), #299, .T. ) ;
#275 = CYLINDRICAL_SURFACE ( 'NONE', #208, 5.000000000000000888 ) ;
#276 = COORDINATED_UNIVERSAL_TIME_OFFSET ( 1, 0, .AHEAD. ) ;
#277 = APPROVAL_PERSON_ORGANIZATION ( #58, #78, #82 ) ;
#278 = ORIENTED_EDGE ( 'NONE', *, *, #192, .T. ) ;
#279 = ADVANCED_FACE ( 'NONE', ( #294 ), #165, .F. ) ;
#280 = EDGE_LOOP ( 'NONE', ( #90, #22 ) ) ;
#281 = AXIS2_PLACEMENT_3D ( 'NONE', #122, #49, #127 ) ;
#282 = ORIENTED_EDGE ( 'NONE', *, *, #40, .F. ) ;
#283 = ORIENTED_EDGE ( 'NONE', *, *, #192, .F. ) ;
#284 = DIRECTION ( 'NONE',  ( -1.000000000000000000, 0.000000000000000000, 0.000000000000000000 ) ) ;
#285 = DIRECTION ( 'NONE',  ( 0.000000000000000000, 0.000000000000000000, 1.000000000000000000 ) ) ;
#286 = UNCERTAINTY_MEASURE_WITH_UNIT (LENGTH_MEASURE( 1.000000000000000082E-05 ), #272, 'distance_accuracy_value', 'NONE');
#287 = PLANE ( 'NONE',  #224 ) ;
#288 = LOCAL_TIME ( 11, 43, 22.00000000000000000, #184 ) ;
#289 = CARTESIAN_POINT ( 'NONE',  ( 0.000000000000000000, 0.000000000000000000, 5.000000000000000000 ) ) ;
#290 = DIRECTION ( 'NONE',  ( -0.000000000000000000, -0.000000000000000000, -1.000000000000000000 ) ) ;
#291 = DIRECTION ( 'NONE',  ( 1.000000000000000000, 0.000000000000000000, 0.000000000000000000 ) ) ;
#292 = LOCAL_TIME ( 11, 43, 22.00000000000000000, #134 ) ;
#293 = APPROVAL_PERSON_ORGANIZATION ( #54, #193, #107 ) ;
#294 = FACE_OUTER_BOUND ( 'NONE', #235, .T. ) ;
#295 = PERSON ( 'NEURÈENÝ', 'NEURÈENÝ', 'NEURÈENÝ', ('NEURÈENÝ'), ('NEURÈENÝ'), ('NEURÈENÝ') ) ;
#296 = TOROIDAL_SURFACE ( 'NONE', #96, 5.200000000000001066, 0.2000000000000000111 ) ;
#297 = ADVANCED_FACE ( 'NONE', ( #51 ), #275, .T. ) ;
#298 = CC_DESIGN_APPROVAL ( #100, ( #65 ) ) ;
#299 = CYLINDRICAL_SURFACE ( 'NONE', #271, 8.000000000000000000 ) ;
#300 = DIRECTION ( 'NONE',  ( -0.000000000000000000, -0.000000000000000000, -1.000000000000000000 ) ) ;
#301 = APPROVAL_STATUS ( 'not_yet_approved' ) ;
#302 = VERTEX_POINT ( 'NONE', #223 ) ;
#303 = SHAPE_DEFINITION_REPRESENTATION ( #72, #93 ) ;
#304 = ORIENTED_EDGE ( 'NONE', *, *, #15, .T. ) ;
#305 = APPROVAL_DATE_TIME ( #60, #78 ) ;
#306 = ORIENTED_EDGE ( 'NONE', *, *, #268, .F. ) ;
#307 = EDGE_LOOP ( 'NONE', ( #258, #304 ) ) ;
ENDSEC;
END-ISO-10303-21;
