ISO-10303-21;
HEADER;
FILE_DESCRIPTION (( 'STEP AP203' ),
    '1' );
FILE_NAME ('3f04.STEP',
    '2022-07-07T09:42:31',
    ( '' ),
    ( '' ),
    'SwSTEP 2.0',
    'SolidWorks 2019',
    '' );
FILE_SCHEMA (( 'CONFIG_CONTROL_DESIGN' ));
ENDSEC;

DATA;
#1 = CLOSED_SHELL ( 'NONE', ( #179, #43, #216, #294, #76, #158, #127, #125, #133 ) ) ;
#2 = DIRECTION ( 'NONE',  ( 1.000000000000000000, 0.000000000000000000, 0.000000000000000000 ) ) ;
#3 = DIRECTION ( 'NONE',  ( 1.000000000000000000, 0.000000000000000000, 0.000000000000000000 ) ) ;
#4 = CALENDAR_DATE ( 2022, 7, 7 ) ;
#5 = CARTESIAN_POINT ( 'NONE',  ( 0.000000000000000000, 0.000000000000000000, 7.000000000000000000 ) ) ;
#6 = LOCAL_TIME ( 11, 42, 31.00000000000000000, #173 ) ;
#7 = PLANE ( 'NONE',  #243 ) ;
#8 = EDGE_CURVE ( 'NONE', #15, #154, #130, .T. ) ;
#9 = LOCAL_TIME ( 11, 42, 31.00000000000000000, #40 ) ;
#10 = FACE_BOUND ( 'NONE', #222, .T. ) ;
#11 = ORIENTED_EDGE ( 'NONE', *, *, #296, .T. ) ;
#12 = ORIENTED_EDGE ( 'NONE', *, *, #215, .F. ) ;
#13 = ORIENTED_EDGE ( 'NONE', *, *, #268, .T. ) ;
#14 = ORIENTED_EDGE ( 'NONE', *, *, #70, .F. ) ;
#15 = VERTEX_POINT ( 'NONE', #150 ) ;
#16 = CC_DESIGN_PERSON_AND_ORGANIZATION_ASSIGNMENT ( #210, #101, ( #199 ) ) ;
#17 = APPROVAL_STATUS ( 'not_yet_approved' ) ;
#18 = ORIENTED_EDGE ( 'NONE', *, *, #166, .F. ) ;
#19 = VECTOR ( 'NONE', #211, 1000.000000000000000 ) ;
#20 = SHAPE_DEFINITION_REPRESENTATION ( #264, #109 ) ;
#21 = CIRCLE ( 'NONE', #153, 6.250000000000000000 ) ;
#22 = CC_DESIGN_PERSON_AND_ORGANIZATION_ASSIGNMENT ( #95, #141, ( #75 ) ) ;
#23 = LINE ( 'NONE', #96, #288 ) ;
#24 = FACE_OUTER_BOUND ( 'NONE', #64, .T. ) ;
#25 = CARTESIAN_POINT ( 'NONE',  ( 0.000000000000000000, 0.000000000000000000, 7.199999999999984190 ) ) ;
#26 = DIRECTION ( 'NONE',  ( 0.000000000000000000, -1.000000000000000000, 0.000000000000000000 ) ) ;
#27 = DIRECTION ( 'NONE',  ( -0.000000000000000000, -0.000000000000000000, -1.000000000000000000 ) ) ;
#28 = DIRECTION ( 'NONE',  ( 0.000000000000000000, 0.000000000000000000, 1.000000000000000000 ) ) ;
#29 = APPROVAL ( #113, 'NEURÈENÝ' ) ;
#30 = CC_DESIGN_SECURITY_CLASSIFICATION ( #88, ( #75 ) ) ;
#31 = ORIENTED_EDGE ( 'NONE', *, *, #151, .F. ) ;
#32 = LINE ( 'NONE', #203, #19 ) ;
#33 = ORIENTED_EDGE ( 'NONE', *, *, #121, .F. ) ;
#34 = EDGE_CURVE ( 'NONE', #140, #114, #66, .T. ) ;
#35 = CARTESIAN_POINT ( 'NONE',  ( 0.000000000000000000, 0.000000000000000000, 7.199999999999984190 ) ) ;
#36 = CARTESIAN_POINT ( 'NONE',  ( 6.250000000000000000, 7.654042494670957606E-16, 322.0000000000000000 ) ) ;
#37 = ORIENTED_EDGE ( 'NONE', *, *, #193, .F. ) ;
#38 = PRODUCT_DEFINITION ( 'NEZNÁMÝ', '', #75, #112 ) ;
#39 = CARTESIAN_POINT ( 'NONE',  ( 9.000000000000000000, 1.102182119232617714E-15, 7.000000000000000000 ) ) ;
#40 = COORDINATED_UNIVERSAL_TIME_OFFSET ( 1, 0, .AHEAD. ) ;
#41 = APPROVAL_PERSON_ORGANIZATION ( #266, #49, #55 ) ;
#42 = CARTESIAN_POINT ( 'NONE',  ( 0.000000000000000000, 0.000000000000000000, 7.000000000000000000 ) ) ;
#43 = ADVANCED_FACE ( 'NONE', ( #77 ), #181, .T. ) ;
#44 = TOROIDAL_SURFACE ( 'NONE', #137, 6.450000000000000178, 0.2000000000000000111 ) ;
#45 = AXIS2_PLACEMENT_3D ( 'NONE', #35, #224, #295 ) ;
#46 = CARTESIAN_POINT ( 'NONE',  ( 0.000000000000000000, 0.000000000000000000, 7.199999999999984190 ) ) ;
#47 = DATE_AND_TIME ( #4, #196 ) ;
#48 = CARTESIAN_POINT ( 'NONE',  ( -6.250000000000000000, 0.000000000000000000, 7.199999999999984190 ) ) ;
#49 = APPROVAL ( #17, 'NEURÈENÝ' ) ;
#50 = DIRECTION ( 'NONE',  ( -0.000000000000000000, -0.000000000000000000, -1.000000000000000000 ) ) ;
#51 = AXIS2_PLACEMENT_3D ( 'NONE', #42, #98, #138 ) ;
#52 = DIRECTION ( 'NONE',  ( 1.000000000000000000, 0.000000000000000000, 0.000000000000000000 ) ) ;
#53 = CC_DESIGN_APPROVAL ( #49, ( #75 ) ) ;
#54 = DIRECTION ( 'NONE',  ( -0.000000000000000000, -0.000000000000000000, -1.000000000000000000 ) ) ;
#55 = APPROVAL_ROLE ( '' ) ;
#56 = ORIENTED_EDGE ( 'NONE', *, *, #166, .T. ) ;
#57 = FACE_OUTER_BOUND ( 'NONE', #252, .T. ) ;
#58 = APPLICATION_PROTOCOL_DEFINITION ( 'international standard', 'config_control_design', 1994, #290 ) ;
#59 = ORIENTED_EDGE ( 'NONE', *, *, #70, .T. ) ;
#60 = CARTESIAN_POINT ( 'NONE',  ( 6.450000000000000178, 0.000000000000000000, 6.999999999999992006 ) ) ;
#61 = CARTESIAN_POINT ( 'NONE',  ( 0.000000000000000000, 0.000000000000000000, 7.000000000000000000 ) ) ;
#62 = ORIENTED_EDGE ( 'NONE', *, *, #73, .T. ) ;
#63 = CIRCLE ( 'NONE', #293, 6.250000000000000000 ) ;
#64 = EDGE_LOOP ( 'NONE', ( #245, #129, #11, #13 ) ) ;
#65 = CC_DESIGN_PERSON_AND_ORGANIZATION_ASSIGNMENT ( #139, #230, ( #38 ) ) ;
#66 = CIRCLE ( 'NONE', #239, 0.1999999999999996503 ) ;
#67 = CARTESIAN_POINT ( 'NONE',  ( 6.450000000000000178, 0.000000000000000000, 7.199999999999984190 ) ) ;
#68 = COORDINATED_UNIVERSAL_TIME_OFFSET ( 1, 0, .AHEAD. ) ;
#69 = DIRECTION ( 'NONE',  ( 0.000000000000000000, 0.000000000000000000, -1.000000000000000000 ) ) ;
#70 = EDGE_CURVE ( 'NONE', #111, #15, #107, .T. ) ;
#71 = PERSON_AND_ORGANIZATION ( #280, #306 ) ;
#72 = DIRECTION ( 'NONE',  ( 1.000000000000000000, 0.000000000000000000, 0.000000000000000000 ) ) ;
#73 = EDGE_CURVE ( 'NONE', #82, #114, #148, .T. ) ;
#74 = CARTESIAN_POINT ( 'NONE',  ( 0.000000000000000000, 0.000000000000000000, 322.0000000000000000 ) ) ;
#75 = PRODUCT_DEFINITION_FORMATION_WITH_SPECIFIED_SOURCE ( 'LIBOVOLNÝ', '', #199, .NOT_KNOWN. ) ;
#76 = ADVANCED_FACE ( 'NONE', ( #10, #57 ), #244, .T. ) ;
#77 = FACE_OUTER_BOUND ( 'NONE', #79, .T. ) ;
#78 = DIRECTION ( 'NONE',  ( -0.000000000000000000, -0.000000000000000000, -1.000000000000000000 ) ) ;
#79 = EDGE_LOOP ( 'NONE', ( #85, #273, #270, #165 ) ) ;
#80 = AXIS2_PLACEMENT_3D ( 'NONE', #5, #91, #3 ) ;
#81 = DIRECTION ( 'NONE',  ( 1.000000000000000000, 0.000000000000000000, 0.000000000000000000 ) ) ;
#82 = VERTEX_POINT ( 'NONE', #60 ) ;
#83 = DIRECTION ( 'NONE',  ( 1.000000000000000000, 0.000000000000000000, 0.000000000000000000 ) ) ;
#84 = FACE_OUTER_BOUND ( 'NONE', #248, .T. ) ;
#85 = ORIENTED_EDGE ( 'NONE', *, *, #147, .F. ) ;
#86 = COORDINATED_UNIVERSAL_TIME_OFFSET ( 1, 0, .AHEAD. ) ;
#87 =( GEOMETRIC_REPRESENTATION_CONTEXT ( 3 ) GLOBAL_UNCERTAINTY_ASSIGNED_CONTEXT ( ( #279 ) ) GLOBAL_UNIT_ASSIGNED_CONTEXT ( ( #298, #162, #272 ) ) REPRESENTATION_CONTEXT ( 'NONE', 'WORKASPACE' ) );
#88 = SECURITY_CLASSIFICATION ( '', '', #284 ) ;
#89 = EDGE_CURVE ( 'NONE', #154, #225, #213, .T. ) ;
#90 = MANIFOLD_SOLID_BREP ( 'Zaoblit1', #1 ) ;
#91 = DIRECTION ( 'NONE',  ( 0.000000000000000000, 0.000000000000000000, 1.000000000000000000 ) ) ;
#92 = PERSON_AND_ORGANIZATION_ROLE ( 'classification_officer' ) ;
#93 = DIRECTION ( 'NONE',  ( -0.000000000000000000, -0.000000000000000000, -1.000000000000000000 ) ) ;
#94 = EDGE_CURVE ( 'NONE', #188, #297, #63, .T. ) ;
#95 = PERSON_AND_ORGANIZATION ( #280, #306 ) ;
#96 = CARTESIAN_POINT ( 'NONE',  ( 9.000000000000000000, 1.102182119232617714E-15, 7.000000000000000000 ) ) ;
#97 = DIRECTION ( 'NONE',  ( 0.000000000000000000, 0.000000000000000000, 1.000000000000000000 ) ) ;
#98 = DIRECTION ( 'NONE',  ( -0.000000000000000000, -0.000000000000000000, -1.000000000000000000 ) ) ;
#99 = CC_DESIGN_DATE_AND_TIME_ASSIGNMENT ( #164, #131, ( #38 ) ) ;
#100 = ORIENTED_EDGE ( 'NONE', *, *, #103, .F. ) ;
#101 = PERSON_AND_ORGANIZATION_ROLE ( 'design_owner' ) ;
#102 = EDGE_LOOP ( 'NONE', ( #132, #265, #177, #31 ) ) ;
#103 = EDGE_CURVE ( 'NONE', #134, #140, #234, .T. ) ;
#104 = ORIENTED_EDGE ( 'NONE', *, *, #147, .T. ) ;
#105 = COORDINATED_UNIVERSAL_TIME_OFFSET ( 1, 0, .AHEAD. ) ;
#106 = ORIENTED_EDGE ( 'NONE', *, *, #8, .T. ) ;
#107 = CIRCLE ( 'NONE', #282, 9.000000000000000000 ) ;
#108 = AXIS2_PLACEMENT_3D ( 'NONE', #144, #50, #175 ) ;
#109 = ADVANCED_BREP_SHAPE_REPRESENTATION ( '3f04', ( #90, #200 ), #87 ) ;
#110 = ORIENTED_EDGE ( 'NONE', *, *, #94, .T. ) ;
#111 = VERTEX_POINT ( 'NONE', #39 ) ;
#112 = DESIGN_CONTEXT ( 'detailed design', #290, 'design' ) ;
#113 = APPROVAL_STATUS ( 'not_yet_approved' ) ;
#114 = VERTEX_POINT ( 'NONE', #229 ) ;
#115 = TOROIDAL_SURFACE ( 'NONE', #221, 6.450000000000000178, 0.2000000000000000111 ) ;
#116 = APPLICATION_CONTEXT ( 'configuration controlled 3d designs of mechanical parts and assemblies' ) ;
#117 = CYLINDRICAL_SURFACE ( 'NONE', #108, 6.250000000000000000 ) ;
#118 = CALENDAR_DATE ( 2022, 7, 7 ) ;
#119 = CARTESIAN_POINT ( 'NONE',  ( 0.000000000000000000, 0.000000000000000000, 7.199999999999984190 ) ) ;
#120 = DIRECTION ( 'NONE',  ( 1.000000000000000000, 0.000000000000000000, -0.000000000000000000 ) ) ;
#121 = EDGE_CURVE ( 'NONE', #114, #82, #277, .T. ) ;
#122 = AXIS2_PLACEMENT_3D ( 'NONE', #155, #28, #81 ) ;
#123 = DIRECTION ( 'NONE',  ( 0.000000000000000000, 0.000000000000000000, 1.000000000000000000 ) ) ;
#124 = DIRECTION ( 'NONE',  ( -0.000000000000000000, -0.000000000000000000, -1.000000000000000000 ) ) ;
#125 = ADVANCED_FACE ( 'NONE', ( #149 ), #7, .T. ) ;
#126 = CARTESIAN_POINT ( 'NONE',  ( 0.000000000000000000, 0.000000000000000000, 7.000000000000000000 ) ) ;
#127 = ADVANCED_FACE ( 'NONE', ( #24 ), #117, .T. ) ;
#128 = DIRECTION ( 'NONE',  ( 0.000000000000000000, 0.000000000000000000, 1.000000000000000000 ) ) ;
#129 = ORIENTED_EDGE ( 'NONE', *, *, #94, .F. ) ;
#130 = LINE ( 'NONE', #184, #262 ) ;
#131 = DATE_TIME_ROLE ( 'creation_date' ) ;
#132 = ORIENTED_EDGE ( 'NONE', *, *, #268, .F. ) ;
#133 = ADVANCED_FACE ( 'NONE', ( #146 ), #44, .F. ) ;
#134 = VERTEX_POINT ( 'NONE', #142 ) ;
#135 = CALENDAR_DATE ( 2022, 7, 7 ) ;
#136 = AXIS2_PLACEMENT_3D ( 'NONE', #242, #128, #202 ) ;
#137 = AXIS2_PLACEMENT_3D ( 'NONE', #25, #97, #2 ) ;
#138 = DIRECTION ( 'NONE',  ( 1.000000000000000000, 0.000000000000000000, 0.000000000000000000 ) ) ;
#139 = PERSON_AND_ORGANIZATION ( #280, #306 ) ;
#140 = VERTEX_POINT ( 'NONE', #48 ) ;
#141 = PERSON_AND_ORGANIZATION_ROLE ( 'design_supplier' ) ;
#142 = CARTESIAN_POINT ( 'NONE',  ( 6.250000000000000000, 7.654042494670957606E-16, 7.199999999999984190 ) ) ;
#143 = LOCAL_TIME ( 11, 42, 31.00000000000000000, #86 ) ;
#144 = CARTESIAN_POINT ( 'NONE',  ( 0.000000000000000000, 0.000000000000000000, 322.0000000000000000 ) ) ;
#145 = FACE_OUTER_BOUND ( 'NONE', #253, .T. ) ;
#146 = FACE_OUTER_BOUND ( 'NONE', #302, .T. ) ;
#147 = EDGE_CURVE ( 'NONE', #297, #188, #219, .T. ) ;
#148 = CIRCLE ( 'NONE', #51, 6.450000000000000178 ) ;
#149 = FACE_OUTER_BOUND ( 'NONE', #186, .T. ) ;
#150 = CARTESIAN_POINT ( 'NONE',  ( -9.000000000000000000, 0.000000000000000000, 7.000000000000000000 ) ) ;
#151 = EDGE_CURVE ( 'NONE', #134, #82, #163, .T. ) ;
#152 = CALENDAR_DATE ( 2022, 7, 7 ) ;
#153 = AXIS2_PLACEMENT_3D ( 'NONE', #46, #198, #52 ) ;
#154 = VERTEX_POINT ( 'NONE', #192 ) ;
#155 = CARTESIAN_POINT ( 'NONE',  ( 0.000000000000000000, 0.000000000000000000, 0.000000000000000000 ) ) ;
#156 = APPROVAL_DATE_TIME ( #187, #29 ) ;
#157 = ORIENTED_EDGE ( 'NONE', *, *, #8, .F. ) ;
#158 = ADVANCED_FACE ( 'NONE', ( #145 ), #238, .F. ) ;
#159 = CARTESIAN_POINT ( 'NONE',  ( -6.450000000000000178, 7.898971854500428692E-16, 7.199999999999984190 ) ) ;
#160 = MECHANICAL_CONTEXT ( 'NONE', #116, 'mechanical' ) ;
#161 = DIRECTION ( 'NONE',  ( 1.000000000000000000, 0.000000000000000000, 0.000000000000000000 ) ) ;
#162 =( NAMED_UNIT ( * ) PLANE_ANGLE_UNIT ( ) SI_UNIT ( $, .RADIAN. ) );
#163 = CIRCLE ( 'NONE', #207, 0.1999999999999996503 ) ;
#164 = DATE_AND_TIME ( #152, #9 ) ;
#165 = ORIENTED_EDGE ( 'NONE', *, *, #296, .F. ) ;
#166 = EDGE_CURVE ( 'NONE', #225, #154, #176, .T. ) ;
#167 = AXIS2_PLACEMENT_3D ( 'NONE', #220, #124, #261 ) ;
#168 = APPROVAL_STATUS ( 'not_yet_approved' ) ;
#169 = DIRECTION ( 'NONE',  ( 0.000000000000000000, 0.000000000000000000, 1.000000000000000000 ) ) ;
#170 = VECTOR ( 'NONE', #27, 1000.000000000000000 ) ;
#171 = PERSON_AND_ORGANIZATION_ROLE ( 'creator' ) ;
#172 = DIRECTION ( 'NONE',  ( 1.000000000000000000, 0.000000000000000000, -0.000000000000000000 ) ) ;
#173 = COORDINATED_UNIVERSAL_TIME_OFFSET ( 1, 0, .AHEAD. ) ;
#174 = CARTESIAN_POINT ( 'NONE',  ( 6.250000000000000000, 7.654042494670957606E-16, 322.0000000000000000 ) ) ;
#175 = DIRECTION ( 'NONE',  ( -1.000000000000000000, 0.000000000000000000, 0.000000000000000000 ) ) ;
#176 = CIRCLE ( 'NONE', #299, 9.000000000000000000 ) ;
#177 = ORIENTED_EDGE ( 'NONE', *, *, #73, .F. ) ;
#178 = DIRECTION ( 'NONE',  ( 0.000000000000000000, 0.000000000000000000, 1.000000000000000000 ) ) ;
#179 = ADVANCED_FACE ( 'NONE', ( #241 ), #115, .F. ) ;
#180 = CARTESIAN_POINT ( 'NONE',  ( 0.000000000000000000, 0.000000000000000000, 0.000000000000000000 ) ) ;
#181 = CYLINDRICAL_SURFACE ( 'NONE', #190, 6.250000000000000000 ) ;
#182 = DIRECTION ( 'NONE',  ( 1.000000000000000000, 0.000000000000000000, 0.000000000000000000 ) ) ;
#183 = ORIENTED_EDGE ( 'NONE', *, *, #151, .T. ) ;
#184 = CARTESIAN_POINT ( 'NONE',  ( -9.000000000000000000, 0.000000000000000000, 7.000000000000000000 ) ) ;
#185 = DATE_AND_TIME ( #135, #191 ) ;
#186 = EDGE_LOOP ( 'NONE', ( #110, #104 ) ) ;
#187 = DATE_AND_TIME ( #250, #143 ) ;
#188 = VERTEX_POINT ( 'NONE', #236 ) ;
#189 = CC_DESIGN_APPROVAL ( #232, ( #88 ) ) ;
#190 = AXIS2_PLACEMENT_3D ( 'NONE', #249, #54, #223 ) ;
#191 = LOCAL_TIME ( 11, 42, 31.00000000000000000, #105 ) ;
#192 = CARTESIAN_POINT ( 'NONE',  ( -9.000000000000000000, 0.000000000000000000, 0.000000000000000000 ) ) ;
#193 = EDGE_CURVE ( 'NONE', #15, #111, #283, .T. ) ;
#194 = PERSON_AND_ORGANIZATION ( #280, #306 ) ;
#195 = DIRECTION ( 'NONE',  ( 0.000000000000000000, 0.000000000000000000, 1.000000000000000000 ) ) ;
#196 = LOCAL_TIME ( 11, 42, 31.00000000000000000, #68 ) ;
#197 = DIRECTION ( 'NONE',  ( 1.000000000000000000, 0.000000000000000000, 0.000000000000000000 ) ) ;
#198 = DIRECTION ( 'NONE',  ( 0.000000000000000000, 0.000000000000000000, 1.000000000000000000 ) ) ;
#199 = PRODUCT ( '3f04', '3f04', '', ( #160 ) ) ;
#200 = AXIS2_PLACEMENT_3D ( 'NONE', #180, #227, #182 ) ;
#201 = DIRECTION ( 'NONE',  ( 1.000000000000000000, 0.000000000000000000, 0.000000000000000000 ) ) ;
#202 = DIRECTION ( 'NONE',  ( 1.000000000000000000, 0.000000000000000000, -0.000000000000000000 ) ) ;
#203 = CARTESIAN_POINT ( 'NONE',  ( -6.250000000000000000, 0.000000000000000000, 322.0000000000000000 ) ) ;
#204 = ORIENTED_EDGE ( 'NONE', *, *, #89, .F. ) ;
#205 = DIRECTION ( 'NONE',  ( -0.000000000000000000, -0.000000000000000000, -1.000000000000000000 ) ) ;
#206 = DIRECTION ( 'NONE',  ( -1.000000000000000000, 0.000000000000000000, 0.000000000000000000 ) ) ;
#207 = AXIS2_PLACEMENT_3D ( 'NONE', #67, #26, #69 ) ;
#208 = ORIENTED_EDGE ( 'NONE', *, *, #193, .T. ) ;
#209 = CARTESIAN_POINT ( 'NONE',  ( 0.000000000000000000, 0.000000000000000000, 7.000000000000000000 ) ) ;
#210 = PERSON_AND_ORGANIZATION ( #280, #306 ) ;
#211 = DIRECTION ( 'NONE',  ( -0.000000000000000000, -0.000000000000000000, -1.000000000000000000 ) ) ;
#212 = EDGE_LOOP ( 'NONE', ( #14, #303, #56, #157 ) ) ;
#213 = CIRCLE ( 'NONE', #122, 9.000000000000000000 ) ;
#214 = APPROVAL_PERSON_ORGANIZATION ( #276, #29, #304 ) ;
#215 = EDGE_CURVE ( 'NONE', #111, #225, #23, .T. ) ;
#216 = ADVANCED_FACE ( 'NONE', ( #291 ), #285, .T. ) ;
#217 = CARTESIAN_POINT ( 'NONE',  ( 0.000000000000000000, 0.000000000000000000, 322.0000000000000000 ) ) ;
#218 = DIRECTION ( 'NONE',  ( 0.000000000000000000, 0.000000000000000000, 1.000000000000000000 ) ) ;
#219 = CIRCLE ( 'NONE', #228, 6.250000000000000000 ) ;
#220 = CARTESIAN_POINT ( 'NONE',  ( 0.000000000000000000, 0.000000000000000000, 7.000000000000000000 ) ) ;
#221 = AXIS2_PLACEMENT_3D ( 'NONE', #119, #233, #197 ) ;
#222 = EDGE_LOOP ( 'NONE', ( #62, #278 ) ) ;
#223 = DIRECTION ( 'NONE',  ( -1.000000000000000000, 0.000000000000000000, 0.000000000000000000 ) ) ;
#224 = DIRECTION ( 'NONE',  ( 0.000000000000000000, 0.000000000000000000, 1.000000000000000000 ) ) ;
#225 = VERTEX_POINT ( 'NONE', #289 ) ;
#226 = ORIENTED_EDGE ( 'NONE', *, *, #89, .T. ) ;
#227 = DIRECTION ( 'NONE',  ( 0.000000000000000000, 0.000000000000000000, 1.000000000000000000 ) ) ;
#228 = AXIS2_PLACEMENT_3D ( 'NONE', #217, #195, #287 ) ;
#229 = CARTESIAN_POINT ( 'NONE',  ( -6.450000000000000178, 7.898971854500428692E-16, 6.999999999999992006 ) ) ;
#230 = PERSON_AND_ORGANIZATION_ROLE ( 'creator' ) ;
#231 = AXIS2_PLACEMENT_3D ( 'NONE', #61, #301, #206 ) ;
#232 = APPROVAL ( #168, 'NEURÈENÝ' ) ;
#233 = DIRECTION ( 'NONE',  ( 0.000000000000000000, 0.000000000000000000, 1.000000000000000000 ) ) ;
#234 = CIRCLE ( 'NONE', #45, 6.250000000000000000 ) ;
#235 = PERSON_AND_ORGANIZATION ( #280, #306 ) ;
#236 = CARTESIAN_POINT ( 'NONE',  ( -6.250000000000000000, 0.000000000000000000, 322.0000000000000000 ) ) ;
#237 = CARTESIAN_POINT ( 'NONE',  ( 0.000000000000000000, 0.000000000000000000, 0.000000000000000000 ) ) ;
#238 = PLANE ( 'NONE',  #240 ) ;
#239 = AXIS2_PLACEMENT_3D ( 'NONE', #159, #274, #271 ) ;
#240 = AXIS2_PLACEMENT_3D ( 'NONE', #256, #123, #172 ) ;
#241 = FACE_OUTER_BOUND ( 'NONE', #102, .T. ) ;
#242 = CARTESIAN_POINT ( 'NONE',  ( 0.000000000000000000, 0.000000000000000000, 7.000000000000000000 ) ) ;
#243 = AXIS2_PLACEMENT_3D ( 'NONE', #74, #169, #120 ) ;
#244 = PLANE ( 'NONE',  #136 ) ;
#245 = ORIENTED_EDGE ( 'NONE', *, *, #251, .F. ) ;
#246 = CC_DESIGN_DATE_AND_TIME_ASSIGNMENT ( #47, #286, ( #88 ) ) ;
#247 = DIRECTION ( 'NONE',  ( 0.000000000000000000, 0.000000000000000000, 1.000000000000000000 ) ) ;
#248 = EDGE_LOOP ( 'NONE', ( #12, #37, #106, #226 ) ) ;
#249 = CARTESIAN_POINT ( 'NONE',  ( 0.000000000000000000, 0.000000000000000000, 322.0000000000000000 ) ) ;
#250 = CALENDAR_DATE ( 2022, 7, 7 ) ;
#251 = EDGE_CURVE ( 'NONE', #297, #134, #259, .T. ) ;
#252 = EDGE_LOOP ( 'NONE', ( #208, #59 ) ) ;
#253 = EDGE_LOOP ( 'NONE', ( #204, #18 ) ) ;
#254 = AXIS2_PLACEMENT_3D ( 'NONE', #126, #205, #83 ) ;
#255 = APPROVAL_ROLE ( '' ) ;
#256 = CARTESIAN_POINT ( 'NONE',  ( 0.000000000000000000, 0.000000000000000000, 0.000000000000000000 ) ) ;
#257 = APPROVAL_PERSON_ORGANIZATION ( #71, #232, #255 ) ;
#258 = APPROVAL_DATE_TIME ( #260, #232 ) ;
#259 = LINE ( 'NONE', #174, #170 ) ;
#260 = DATE_AND_TIME ( #118, #6 ) ;
#261 = DIRECTION ( 'NONE',  ( -1.000000000000000000, 0.000000000000000000, 0.000000000000000000 ) ) ;
#262 = VECTOR ( 'NONE', #78, 1000.000000000000000 ) ;
#263 = CC_DESIGN_APPROVAL ( #29, ( #38 ) ) ;
#264 = PRODUCT_DEFINITION_SHAPE ( 'NONE', 'NONE',  #38 ) ;
#265 = ORIENTED_EDGE ( 'NONE', *, *, #34, .T. ) ;
#266 = PERSON_AND_ORGANIZATION ( #280, #306 ) ;
#267 = CARTESIAN_POINT ( 'NONE',  ( 0.000000000000000000, 0.000000000000000000, 322.0000000000000000 ) ) ;
#268 = EDGE_CURVE ( 'NONE', #140, #134, #21, .T. ) ;
#269 = CYLINDRICAL_SURFACE ( 'NONE', #231, 9.000000000000000000 ) ;
#270 = ORIENTED_EDGE ( 'NONE', *, *, #103, .T. ) ;
#271 = DIRECTION ( 'NONE',  ( -1.000000000000000000, 1.224646799147353454E-16, 0.000000000000000000 ) ) ;
#272 =( NAMED_UNIT ( * ) SI_UNIT ( $, .STERADIAN. ) SOLID_ANGLE_UNIT ( ) );
#273 = ORIENTED_EDGE ( 'NONE', *, *, #251, .T. ) ;
#274 = DIRECTION ( 'NONE',  ( 1.224646799147353207E-16, 1.000000000000000000, -0.000000000000000000 ) ) ;
#275 = APPROVAL_DATE_TIME ( #185, #49 ) ;
#276 = PERSON_AND_ORGANIZATION ( #280, #306 ) ;
#277 = CIRCLE ( 'NONE', #254, 6.450000000000000178 ) ;
#278 = ORIENTED_EDGE ( 'NONE', *, *, #121, .T. ) ;
#279 = UNCERTAINTY_MEASURE_WITH_UNIT (LENGTH_MEASURE( 1.000000000000000082E-05 ), #298, 'distance_accuracy_value', 'NONE');
#280 = PERSON ( 'NEURÈENÝ', 'NEURÈENÝ', 'NEURÈENÝ', ('NEURÈENÝ'), ('NEURÈENÝ'), ('NEURÈENÝ') ) ;
#281 = PRODUCT_RELATED_PRODUCT_CATEGORY ( 'detail', '', ( #199 ) ) ;
#282 = AXIS2_PLACEMENT_3D ( 'NONE', #209, #178, #161 ) ;
#283 = CIRCLE ( 'NONE', #80, 9.000000000000000000 ) ;
#284 = SECURITY_CLASSIFICATION_LEVEL ( 'unclassified' ) ;
#285 = CYLINDRICAL_SURFACE ( 'NONE', #167, 9.000000000000000000 ) ;
#286 = DATE_TIME_ROLE ( 'classification_date' ) ;
#287 = DIRECTION ( 'NONE',  ( 1.000000000000000000, 0.000000000000000000, 0.000000000000000000 ) ) ;
#288 = VECTOR ( 'NONE', #93, 1000.000000000000000 ) ;
#289 = CARTESIAN_POINT ( 'NONE',  ( 9.000000000000000000, 1.102182119232617714E-15, 0.000000000000000000 ) ) ;
#290 = APPLICATION_CONTEXT ( 'configuration controlled 3d designs of mechanical parts and assemblies' ) ;
#291 = FACE_OUTER_BOUND ( 'NONE', #212, .T. ) ;
#292 = CC_DESIGN_PERSON_AND_ORGANIZATION_ASSIGNMENT ( #194, #171, ( #75 ) ) ;
#293 = AXIS2_PLACEMENT_3D ( 'NONE', #267, #247, #201 ) ;
#294 = ADVANCED_FACE ( 'NONE', ( #84 ), #269, .T. ) ;
#295 = DIRECTION ( 'NONE',  ( 1.000000000000000000, 0.000000000000000000, 0.000000000000000000 ) ) ;
#296 = EDGE_CURVE ( 'NONE', #188, #140, #32, .T. ) ;
#297 = VERTEX_POINT ( 'NONE', #36 ) ;
#298 =( LENGTH_UNIT ( ) NAMED_UNIT ( * ) SI_UNIT ( .MILLI., .METRE. ) );
#299 = AXIS2_PLACEMENT_3D ( 'NONE', #237, #218, #72 ) ;
#300 = ORIENTED_EDGE ( 'NONE', *, *, #34, .F. ) ;
#301 = DIRECTION ( 'NONE',  ( -0.000000000000000000, -0.000000000000000000, -1.000000000000000000 ) ) ;
#302 = EDGE_LOOP ( 'NONE', ( #300, #100, #183, #33 ) ) ;
#303 = ORIENTED_EDGE ( 'NONE', *, *, #215, .T. ) ;
#304 = APPROVAL_ROLE ( '' ) ;
#305 = APPLICATION_PROTOCOL_DEFINITION ( 'international standard', 'config_control_design', 1994, #116 ) ;
#306 = ORGANIZATION ( 'NEURÈENÝ', 'NEURÈENÝ', '' ) ;
#307 = CC_DESIGN_PERSON_AND_ORGANIZATION_ASSIGNMENT ( #235, #92, ( #88 ) ) ;
ENDSEC;
END-ISO-10303-21;
