ISO-10303-21;
HEADER;
FILE_DESCRIPTION (( 'STEP AP203' ),
    '1' );
FILE_NAME ('f9d5.STEP',
    '2022-07-07T09:29:29',
    ( '' ),
    ( '' ),
    'SwSTEP 2.0',
    'SolidWorks 2019',
    '' );
FILE_SCHEMA (( 'CONFIG_CONTROL_DESIGN' ));
ENDSEC;

DATA;
#1 = PERSON_AND_ORGANIZATION_ROLE ( 'classification_officer' ) ;
#2 = EDGE_CURVE ( 'NONE', #217, #120, #21, .T. ) ;
#3 = VERTEX_POINT ( 'NONE', #145 ) ;
#4 = COORDINATED_UNIVERSAL_TIME_OFFSET ( 1, 0, .AHEAD. ) ;
#5 = EDGE_LOOP ( 'NONE', ( #33, #215, #101, #222 ) ) ;
#6 = AXIS2_PLACEMENT_3D ( 'NONE', #266, #52, #122 ) ;
#7 = ORIENTED_EDGE ( 'NONE', *, *, #27, .F. ) ;
#8 = ORIENTED_EDGE ( 'NONE', *, *, #2, .T. ) ;
#9 = LINE ( 'NONE', #198, #184 ) ;
#10 = ORIENTED_EDGE ( 'NONE', *, *, #243, .F. ) ;
#11 = CARTESIAN_POINT ( 'NONE',  ( 0.000000000000000000, 0.000000000000000000, 0.000000000000000000 ) ) ;
#12 = EDGE_LOOP ( 'NONE', ( #168, #225, #298, #144 ) ) ;
#13 = DIRECTION ( 'NONE',  ( 1.000000000000000000, 0.000000000000000000, -0.000000000000000000 ) ) ;
#14 = ORIENTED_EDGE ( 'NONE', *, *, #80, .T. ) ;
#15 = ADVANCED_FACE ( 'NONE', ( #45 ), #34, .T. ) ;
#16 = CARTESIAN_POINT ( 'NONE',  ( 0.000000000000000000, 0.000000000000000000, 0.000000000000000000 ) ) ;
#17 = DIRECTION ( 'NONE',  ( 0.000000000000000000, 0.000000000000000000, 1.000000000000000000 ) ) ;
#18 = DATE_AND_TIME ( #230, #292 ) ;
#19 = CIRCLE ( 'NONE', #263, 0.1999999999999987899 ) ;
#20 = COORDINATED_UNIVERSAL_TIME_OFFSET ( 1, 0, .AHEAD. ) ;
#21 = CIRCLE ( 'NONE', #194, 16.19999999999999929 ) ;
#22 = APPROVAL ( #40, 'NEURÈENÝ' ) ;
#23 = CIRCLE ( 'NONE', #137, 16.00000000000000000 ) ;
#24 = ADVANCED_FACE ( 'NONE', ( #223 ), #201, .T. ) ;
#25 = CARTESIAN_POINT ( 'NONE',  ( 20.00000000000000000, 2.449293598294706513E-15, 10.00000000000000000 ) ) ;
#26 = CALENDAR_DATE ( 2022, 7, 7 ) ;
#27 = EDGE_CURVE ( 'NONE', #158, #139, #160, .T. ) ;
#28 = SECURITY_CLASSIFICATION_LEVEL ( 'unclassified' ) ;
#29 = DIRECTION ( 'NONE',  ( 0.000000000000000000, 0.000000000000000000, 1.000000000000000000 ) ) ;
#30 = EDGE_LOOP ( 'NONE', ( #75, #186, #269, #228 ) ) ;
#31 = EDGE_LOOP ( 'NONE', ( #176, #173, #70, #91 ) ) ;
#32 = AXIS2_PLACEMENT_3D ( 'NONE', #287, #241, #50 ) ;
#33 = ORIENTED_EDGE ( 'NONE', *, *, #58, .F. ) ;
#34 = CYLINDRICAL_SURFACE ( 'NONE', #32, 16.00000000000000000 ) ;
#35 = DIRECTION ( 'NONE',  ( -1.000000000000000000, 0.000000000000000000, 0.000000000000000000 ) ) ;
#36 = DIRECTION ( 'NONE',  ( -0.000000000000000000, -0.000000000000000000, -1.000000000000000000 ) ) ;
#37 = DIRECTION ( 'NONE',  ( -0.000000000000000000, -0.000000000000000000, -1.000000000000000000 ) ) ;
#38 = CARTESIAN_POINT ( 'NONE',  ( 16.19999999999999929, 0.000000000000000000, 9.999999999999992895 ) ) ;
#39 = ORIENTED_EDGE ( 'NONE', *, *, #87, .T. ) ;
#40 = APPROVAL_STATUS ( 'not_yet_approved' ) ;
#41 = CARTESIAN_POINT ( 'NONE',  ( 20.00000000000000000, 2.449293598294706513E-15, 0.000000000000000000 ) ) ;
#42 = PERSON_AND_ORGANIZATION_ROLE ( 'design_owner' ) ;
#43 = CIRCLE ( 'NONE', #51, 20.00000000000000000 ) ;
#44 = COORDINATED_UNIVERSAL_TIME_OFFSET ( 1, 0, .AHEAD. ) ;
#45 = FACE_OUTER_BOUND ( 'NONE', #5, .T. ) ;
#46 = PERSON_AND_ORGANIZATION ( #214, #126 ) ;
#47 = PLANE ( 'NONE',  #213 ) ;
#48 = ORIENTED_EDGE ( 'NONE', *, *, #123, .F. ) ;
#49 = CC_DESIGN_PERSON_AND_ORGANIZATION_ASSIGNMENT ( #110, #42, ( #65 ) ) ;
#50 = DIRECTION ( 'NONE',  ( -1.000000000000000000, 0.000000000000000000, 0.000000000000000000 ) ) ;
#51 = AXIS2_PLACEMENT_3D ( 'NONE', #143, #285, #68 ) ;
#52 = DIRECTION ( 'NONE',  ( 0.000000000000000000, 0.000000000000000000, 1.000000000000000000 ) ) ;
#53 = PLANE ( 'NONE',  #133 ) ;
#54 = LINE ( 'NONE', #157, #111 ) ;
#55 = LINE ( 'NONE', #180, #105 ) ;
#56 = DIRECTION ( 'NONE',  ( 1.000000000000000000, 0.000000000000000000, 0.000000000000000000 ) ) ;
#57 = APPROVAL_DATE_TIME ( #277, #22 ) ;
#58 = EDGE_CURVE ( 'NONE', #3, #158, #9, .T. ) ;
#59 = CARTESIAN_POINT ( 'NONE',  ( 0.000000000000000000, 0.000000000000000000, 10.19999999999998685 ) ) ;
#60 = CARTESIAN_POINT ( 'NONE',  ( 0.000000000000000000, 0.000000000000000000, 325.0000000000000000 ) ) ;
#61 = PRODUCT_DEFINITION_FORMATION_WITH_SPECIFIED_SOURCE ( 'LIBOVOLNÝ', '', #65, .NOT_KNOWN. ) ;
#62 = CYLINDRICAL_SURFACE ( 'NONE', #88, 20.00000000000000000 ) ;
#63 = CALENDAR_DATE ( 2022, 7, 7 ) ;
#64 = PERSON_AND_ORGANIZATION ( #214, #126 ) ;
#65 = PRODUCT ( 'f9d5', 'f9d5', '', ( #209 ) ) ;
#66 = DIRECTION ( 'NONE',  ( 0.000000000000000000, 0.000000000000000000, 1.000000000000000000 ) ) ;
#67 = PERSON_AND_ORGANIZATION ( #214, #126 ) ;
#68 = DIRECTION ( 'NONE',  ( 1.000000000000000000, 0.000000000000000000, 0.000000000000000000 ) ) ;
#69 = CARTESIAN_POINT ( 'NONE',  ( 0.000000000000000000, 0.000000000000000000, 325.0000000000000000 ) ) ;
#70 = ORIENTED_EDGE ( 'NONE', *, *, #27, .T. ) ;
#71 = VECTOR ( 'NONE', #206, 1000.000000000000000 ) ;
#72 = CARTESIAN_POINT ( 'NONE',  ( 0.000000000000000000, 0.000000000000000000, 10.00000000000000000 ) ) ;
#73 = EDGE_CURVE ( 'NONE', #118, #260, #104, .T. ) ;
#74 = CARTESIAN_POINT ( 'NONE',  ( 0.000000000000000000, 0.000000000000000000, 10.00000000000000000 ) ) ;
#75 = ORIENTED_EDGE ( 'NONE', *, *, #196, .F. ) ;
#76 = DIRECTION ( 'NONE',  ( 1.000000000000000000, 0.000000000000000000, -0.000000000000000000 ) ) ;
#77 = DIRECTION ( 'NONE',  ( 0.000000000000000000, 0.000000000000000000, 1.000000000000000000 ) ) ;
#78 = EDGE_CURVE ( 'NONE', #260, #118, #43, .T. ) ;
#79 = CALENDAR_DATE ( 2022, 7, 7 ) ;
#80 = EDGE_CURVE ( 'NONE', #3, #204, #306, .T. ) ;
#81 = DIRECTION ( 'NONE',  ( 0.000000000000000000, 0.000000000000000000, 1.000000000000000000 ) ) ;
#82 = ADVANCED_FACE ( 'NONE', ( #197, #282 ), #47, .T. ) ;
#83 = AXIS2_PLACEMENT_3D ( 'NONE', #60, #81, #163 ) ;
#84 = COORDINATED_UNIVERSAL_TIME_OFFSET ( 1, 0, .AHEAD. ) ;
#85 = APPLICATION_CONTEXT ( 'configuration controlled 3d designs of mechanical parts and assemblies' ) ;
#86 = CALENDAR_DATE ( 2022, 7, 7 ) ;
#87 = EDGE_CURVE ( 'NONE', #118, #98, #272, .T. ) ;
#88 = AXIS2_PLACEMENT_3D ( 'NONE', #135, #192, #208 ) ;
#89 = EDGE_LOOP ( 'NONE', ( #48, #10 ) ) ;
#90 = DATE_TIME_ROLE ( 'classification_date' ) ;
#91 = ORIENTED_EDGE ( 'NONE', *, *, #153, .F. ) ;
#92 = PRODUCT_RELATED_PRODUCT_CATEGORY ( 'detail', '', ( #65 ) ) ;
#93 = SECURITY_CLASSIFICATION ( '', '', #28 ) ;
#94 = CARTESIAN_POINT ( 'NONE',  ( 0.000000000000000000, 0.000000000000000000, 10.00000000000000000 ) ) ;
#95 = ORIENTED_EDGE ( 'NONE', *, *, #123, .T. ) ;
#96 = DIRECTION ( 'NONE',  ( -0.000000000000000000, -0.000000000000000000, -1.000000000000000000 ) ) ;
#97 = DIRECTION ( 'NONE',  ( 0.000000000000000000, 0.000000000000000000, 1.000000000000000000 ) ) ;
#98 = VERTEX_POINT ( 'NONE', #130 ) ;
#99 = CC_DESIGN_APPROVAL ( #129, ( #61 ) ) ;
#100 = DIRECTION ( 'NONE',  ( 1.000000000000000000, 0.000000000000000000, 0.000000000000000000 ) ) ;
#101 = ORIENTED_EDGE ( 'NONE', *, *, #153, .T. ) ;
#102 = FACE_OUTER_BOUND ( 'NONE', #12, .T. ) ;
#103 = EDGE_CURVE ( 'NONE', #260, #271, #54, .T. ) ;
#104 = CIRCLE ( 'NONE', #289, 20.00000000000000000 ) ;
#105 = VECTOR ( 'NONE', #150, 1000.000000000000000 ) ;
#106 = DIRECTION ( 'NONE',  ( 0.000000000000000000, 0.000000000000000000, 1.000000000000000000 ) ) ;
#107 = FACE_OUTER_BOUND ( 'NONE', #31, .T. ) ;
#108 = APPLICATION_PROTOCOL_DEFINITION ( 'international standard', 'config_control_design', 1994, #207 ) ;
#109 = APPROVAL_PERSON_ORGANIZATION ( #280, #129, #216 ) ;
#110 = PERSON_AND_ORGANIZATION ( #214, #126 ) ;
#111 = VECTOR ( 'NONE', #37, 1000.000000000000000 ) ;
#112 = SHAPE_DEFINITION_REPRESENTATION ( #141, #161 ) ;
#113 = DATE_AND_TIME ( #63, #187 ) ;
#114 = DIRECTION ( 'NONE',  ( 1.000000000000000000, 0.000000000000000000, 0.000000000000000000 ) ) ;
#115 = APPROVAL_DATE_TIME ( #257, #116 ) ;
#116 = APPROVAL ( #281, 'NEURÈENÝ' ) ;
#117 = CARTESIAN_POINT ( 'NONE',  ( 0.000000000000000000, 0.000000000000000000, 10.00000000000000000 ) ) ;
#118 = VERTEX_POINT ( 'NONE', #177 ) ;
#119 = CC_DESIGN_SECURITY_CLASSIFICATION ( #93, ( #61 ) ) ;
#120 = VERTEX_POINT ( 'NONE', #38 ) ;
#121 = CIRCLE ( 'NONE', #156, 16.19999999999999929 ) ;
#122 = DIRECTION ( 'NONE',  ( 1.000000000000000000, 0.000000000000000000, 0.000000000000000000 ) ) ;
#123 = EDGE_CURVE ( 'NONE', #98, #271, #276, .T. ) ;
#124 = DIRECTION ( 'NONE',  ( 0.000000000000000000, -1.000000000000000000, 0.000000000000000000 ) ) ;
#125 = DIRECTION ( 'NONE',  ( 0.000000000000000000, 0.000000000000000000, 1.000000000000000000 ) ) ;
#126 = ORGANIZATION ( 'NEURÈENÝ', 'NEURÈENÝ', '' ) ;
#127 = DIRECTION ( 'NONE',  ( 0.000000000000000000, 0.000000000000000000, 1.000000000000000000 ) ) ;
#128 = ORIENTED_EDGE ( 'NONE', *, *, #174, .T. ) ;
#129 = APPROVAL ( #164, 'NEURÈENÝ' ) ;
#130 = CARTESIAN_POINT ( 'NONE',  ( -20.00000000000000000, 0.000000000000000000, 0.000000000000000000 ) ) ;
#131 = AXIS2_PLACEMENT_3D ( 'NONE', #69, #202, #244 ) ;
#132 = PERSON_AND_ORGANIZATION ( #214, #126 ) ;
#133 = AXIS2_PLACEMENT_3D ( 'NONE', #16, #17, #13 ) ;
#134 =( NAMED_UNIT ( * ) PLANE_ANGLE_UNIT ( ) SI_UNIT ( $, .RADIAN. ) );
#135 = CARTESIAN_POINT ( 'NONE',  ( 0.000000000000000000, 0.000000000000000000, 10.00000000000000000 ) ) ;
#136 = FACE_OUTER_BOUND ( 'NONE', #146, .T. ) ;
#137 = AXIS2_PLACEMENT_3D ( 'NONE', #182, #127, #100 ) ;
#138 = CC_DESIGN_PERSON_AND_ORGANIZATION_ASSIGNMENT ( #46, #1, ( #93 ) ) ;
#139 = VERTEX_POINT ( 'NONE', #229 ) ;
#140 = AXIS2_PLACEMENT_3D ( 'NONE', #248, #224, #227 ) ;
#141 = PRODUCT_DEFINITION_SHAPE ( 'NONE', 'NONE',  #302 ) ;
#142 = ADVANCED_FACE ( 'NONE', ( #226 ), #53, .F. ) ;
#143 = CARTESIAN_POINT ( 'NONE',  ( 0.000000000000000000, 0.000000000000000000, 10.00000000000000000 ) ) ;
#144 = ORIENTED_EDGE ( 'NONE', *, *, #87, .F. ) ;
#145 = CARTESIAN_POINT ( 'NONE',  ( 16.00000000000000000, 1.959434878635765131E-15, 325.0000000000000000 ) ) ;
#146 = EDGE_LOOP ( 'NONE', ( #218, #171, #39, #95 ) ) ;
#147 = TOROIDAL_SURFACE ( 'NONE', #170, 16.19999999999999929, 0.2000000000000000111 ) ;
#148 = DIRECTION ( 'NONE',  ( 0.000000000000000000, 0.000000000000000000, -1.000000000000000000 ) ) ;
#149 = ORIENTED_EDGE ( 'NONE', *, *, #73, .T. ) ;
#150 = DIRECTION ( 'NONE',  ( -0.000000000000000000, -0.000000000000000000, -1.000000000000000000 ) ) ;
#151 = EDGE_LOOP ( 'NONE', ( #128, #8 ) ) ;
#152 = CLOSED_SHELL ( 'NONE', ( #251, #261, #155, #254, #82, #142, #15, #24, #238 ) ) ;
#153 = EDGE_CURVE ( 'NONE', #204, #139, #55, .T. ) ;
#154 = CARTESIAN_POINT ( 'NONE',  ( 0.000000000000000000, 0.000000000000000000, 10.19999999999998685 ) ) ;
#155 = ADVANCED_FACE ( 'NONE', ( #102 ), #247, .T. ) ;
#156 = AXIS2_PLACEMENT_3D ( 'NONE', #74, #268, #273 ) ;
#157 = CARTESIAN_POINT ( 'NONE',  ( 20.00000000000000000, 2.449293598294706513E-15, 10.00000000000000000 ) ) ;
#158 = VERTEX_POINT ( 'NONE', #246 ) ;
#159 = DIRECTION ( 'NONE',  ( -0.000000000000000000, -0.000000000000000000, -1.000000000000000000 ) ) ;
#160 = CIRCLE ( 'NONE', #6, 16.00000000000000000 ) ;
#161 = ADVANCED_BREP_SHAPE_REPRESENTATION ( 'f9d5', ( #188, #262 ), #166 ) ;
#162 = CIRCLE ( 'NONE', #267, 20.00000000000000000 ) ;
#163 = DIRECTION ( 'NONE',  ( 1.000000000000000000, 0.000000000000000000, 0.000000000000000000 ) ) ;
#164 = APPROVAL_STATUS ( 'not_yet_approved' ) ;
#165 = PERSON_AND_ORGANIZATION ( #214, #126 ) ;
#166 =( GEOMETRIC_REPRESENTATION_CONTEXT ( 3 ) GLOBAL_UNCERTAINTY_ASSIGNED_CONTEXT ( ( #172 ) ) GLOBAL_UNIT_ASSIGNED_CONTEXT ( ( #252, #134, #232 ) ) REPRESENTATION_CONTEXT ( 'NONE', 'WORKASPACE' ) );
#167 = DIRECTION ( 'NONE',  ( 1.000000000000000000, 0.000000000000000000, 0.000000000000000000 ) ) ;
#168 = ORIENTED_EDGE ( 'NONE', *, *, #78, .F. ) ;
#169 = LOCAL_TIME ( 11, 29, 29.00000000000000000, #237 ) ;
#170 = AXIS2_PLACEMENT_3D ( 'NONE', #154, #77, #56 ) ;
#171 = ORIENTED_EDGE ( 'NONE', *, *, #73, .F. ) ;
#172 = UNCERTAINTY_MEASURE_WITH_UNIT (LENGTH_MEASURE( 1.000000000000000082E-05 ), #252, 'distance_accuracy_value', 'NONE');
#173 = ORIENTED_EDGE ( 'NONE', *, *, #58, .T. ) ;
#174 = EDGE_CURVE ( 'NONE', #120, #217, #121, .T. ) ;
#175 = AXIS2_PLACEMENT_3D ( 'NONE', #259, #66, #114 ) ;
#176 = ORIENTED_EDGE ( 'NONE', *, *, #80, .F. ) ;
#177 = CARTESIAN_POINT ( 'NONE',  ( -20.00000000000000000, 0.000000000000000000, 10.00000000000000000 ) ) ;
#178 = ORIENTED_EDGE ( 'NONE', *, *, #181, .T. ) ;
#179 = AXIS2_PLACEMENT_3D ( 'NONE', #189, #159, #301 ) ;
#180 = CARTESIAN_POINT ( 'NONE',  ( -16.00000000000000000, 0.000000000000000000, 325.0000000000000000 ) ) ;
#181 = EDGE_CURVE ( 'NONE', #158, #120, #278, .T. ) ;
#182 = CARTESIAN_POINT ( 'NONE',  ( 0.000000000000000000, 0.000000000000000000, 10.19999999999998685 ) ) ;
#183 = ORIENTED_EDGE ( 'NONE', *, *, #78, .T. ) ;
#184 = VECTOR ( 'NONE', #96, 1000.000000000000000 ) ;
#185 = FACE_OUTER_BOUND ( 'NONE', #242, .T. ) ;
#186 = ORIENTED_EDGE ( 'NONE', *, *, #296, .T. ) ;
#187 = LOCAL_TIME ( 11, 29, 29.00000000000000000, #4 ) ;
#188 = MANIFOLD_SOLID_BREP ( 'Zaoblit1', #152 ) ;
#189 = CARTESIAN_POINT ( 'NONE',  ( 0.000000000000000000, 0.000000000000000000, 325.0000000000000000 ) ) ;
#190 = CARTESIAN_POINT ( 'NONE',  ( -16.19999999999999929, 1.983927814618711846E-15, 10.19999999999998685 ) ) ;
#191 = APPROVAL_ROLE ( '' ) ;
#192 = DIRECTION ( 'NONE',  ( -0.000000000000000000, -0.000000000000000000, -1.000000000000000000 ) ) ;
#193 = DATE_TIME_ROLE ( 'creation_date' ) ;
#194 = AXIS2_PLACEMENT_3D ( 'NONE', #94, #245, #199 ) ;
#195 = APPROVAL_DATE_TIME ( #284, #129 ) ;
#196 = EDGE_CURVE ( 'NONE', #139, #158, #23, .T. ) ;
#197 = FACE_BOUND ( 'NONE', #151, .T. ) ;
#198 = CARTESIAN_POINT ( 'NONE',  ( 16.00000000000000000, 1.959434878635765131E-15, 325.0000000000000000 ) ) ;
#199 = DIRECTION ( 'NONE',  ( 1.000000000000000000, 0.000000000000000000, 0.000000000000000000 ) ) ;
#200 = CC_DESIGN_PERSON_AND_ORGANIZATION_ASSIGNMENT ( #165, #258, ( #61 ) ) ;
#201 = PLANE ( 'NONE',  #131 ) ;
#202 = DIRECTION ( 'NONE',  ( 0.000000000000000000, 0.000000000000000000, 1.000000000000000000 ) ) ;
#203 = DIRECTION ( 'NONE',  ( 1.000000000000000000, 0.000000000000000000, 0.000000000000000000 ) ) ;
#204 = VERTEX_POINT ( 'NONE', #294 ) ;
#205 = TOROIDAL_SURFACE ( 'NONE', #235, 16.19999999999999929, 0.2000000000000000111 ) ;
#206 = DIRECTION ( 'NONE',  ( -0.000000000000000000, -0.000000000000000000, -1.000000000000000000 ) ) ;
#207 = APPLICATION_CONTEXT ( 'configuration controlled 3d designs of mechanical parts and assemblies' ) ;
#208 = DIRECTION ( 'NONE',  ( -1.000000000000000000, 0.000000000000000000, 0.000000000000000000 ) ) ;
#209 = MECHANICAL_CONTEXT ( 'NONE', #85, 'mechanical' ) ;
#210 = CYLINDRICAL_SURFACE ( 'NONE', #179, 16.00000000000000000 ) ;
#211 = CC_DESIGN_PERSON_AND_ORGANIZATION_ASSIGNMENT ( #132, #233, ( #302 ) ) ;
#212 = DIRECTION ( 'NONE',  ( 1.000000000000000000, 0.000000000000000000, 0.000000000000000000 ) ) ;
#213 = AXIS2_PLACEMENT_3D ( 'NONE', #117, #125, #76 ) ;
#214 = PERSON ( 'NEURÈENÝ', 'NEURÈENÝ', 'NEURÈENÝ', ('NEURÈENÝ'), ('NEURÈENÝ'), ('NEURÈENÝ') ) ;
#215 = ORIENTED_EDGE ( 'NONE', *, *, #290, .F. ) ;
#216 = APPROVAL_ROLE ( '' ) ;
#217 = VERTEX_POINT ( 'NONE', #270 ) ;
#218 = ORIENTED_EDGE ( 'NONE', *, *, #103, .F. ) ;
#219 = CC_DESIGN_DATE_AND_TIME_ASSIGNMENT ( #18, #193, ( #302 ) ) ;
#220 = CC_DESIGN_APPROVAL ( #116, ( #93 ) ) ;
#221 = AXIS2_PLACEMENT_3D ( 'NONE', #72, #36, #35 ) ;
#222 = ORIENTED_EDGE ( 'NONE', *, *, #196, .T. ) ;
#223 = FACE_OUTER_BOUND ( 'NONE', #265, .T. ) ;
#224 = DIRECTION ( 'NONE',  ( 0.000000000000000000, 0.000000000000000000, 1.000000000000000000 ) ) ;
#225 = ORIENTED_EDGE ( 'NONE', *, *, #103, .T. ) ;
#226 = FACE_OUTER_BOUND ( 'NONE', #89, .T. ) ;
#227 = DIRECTION ( 'NONE',  ( 1.000000000000000000, 0.000000000000000000, 0.000000000000000000 ) ) ;
#228 = ORIENTED_EDGE ( 'NONE', *, *, #181, .F. ) ;
#229 = CARTESIAN_POINT ( 'NONE',  ( -16.00000000000000000, 0.000000000000000000, 10.19999999999998685 ) ) ;
#230 = CALENDAR_DATE ( 2022, 7, 7 ) ;
#231 = CC_DESIGN_APPROVAL ( #22, ( #302 ) ) ;
#232 =( NAMED_UNIT ( * ) SI_UNIT ( $, .STERADIAN. ) SOLID_ANGLE_UNIT ( ) );
#233 = PERSON_AND_ORGANIZATION_ROLE ( 'creator' ) ;
#234 = CC_DESIGN_DATE_AND_TIME_ASSIGNMENT ( #113, #90, ( #93 ) ) ;
#235 = AXIS2_PLACEMENT_3D ( 'NONE', #59, #106, #236 ) ;
#236 = DIRECTION ( 'NONE',  ( 1.000000000000000000, 0.000000000000000000, 0.000000000000000000 ) ) ;
#237 = COORDINATED_UNIVERSAL_TIME_OFFSET ( 1, 0, .AHEAD. ) ;
#238 = ADVANCED_FACE ( 'NONE', ( #185 ), #147, .F. ) ;
#239 = ORIENTED_EDGE ( 'NONE', *, *, #296, .F. ) ;
#240 = LOCAL_TIME ( 11, 29, 29.00000000000000000, #44 ) ;
#241 = DIRECTION ( 'NONE',  ( -0.000000000000000000, -0.000000000000000000, -1.000000000000000000 ) ) ;
#242 = EDGE_LOOP ( 'NONE', ( #239, #7, #178, #288 ) ) ;
#243 = EDGE_CURVE ( 'NONE', #271, #98, #162, .T. ) ;
#244 = DIRECTION ( 'NONE',  ( 1.000000000000000000, 0.000000000000000000, -0.000000000000000000 ) ) ;
#245 = DIRECTION ( 'NONE',  ( -0.000000000000000000, -0.000000000000000000, -1.000000000000000000 ) ) ;
#246 = CARTESIAN_POINT ( 'NONE',  ( 16.00000000000000000, 1.959434878635765131E-15, 10.19999999999998685 ) ) ;
#247 = CYLINDRICAL_SURFACE ( 'NONE', #221, 20.00000000000000000 ) ;
#248 = CARTESIAN_POINT ( 'NONE',  ( 0.000000000000000000, 0.000000000000000000, 0.000000000000000000 ) ) ;
#249 = APPROVAL_PERSON_ORGANIZATION ( #304, #22, #191 ) ;
#250 = CARTESIAN_POINT ( 'NONE',  ( -20.00000000000000000, 0.000000000000000000, 10.00000000000000000 ) ) ;
#251 = ADVANCED_FACE ( 'NONE', ( #293 ), #205, .F. ) ;
#252 =( LENGTH_UNIT ( ) NAMED_UNIT ( * ) SI_UNIT ( .MILLI., .METRE. ) );
#253 = LOCAL_TIME ( 11, 29, 29.00000000000000000, #84 ) ;
#254 = ADVANCED_FACE ( 'NONE', ( #136 ), #62, .T. ) ;
#255 = DIRECTION ( 'NONE',  ( 0.000000000000000000, 0.000000000000000000, 1.000000000000000000 ) ) ;
#256 = CIRCLE ( 'NONE', #83, 16.00000000000000000 ) ;
#257 = DATE_AND_TIME ( #86, #169 ) ;
#258 = PERSON_AND_ORGANIZATION_ROLE ( 'design_supplier' ) ;
#259 = CARTESIAN_POINT ( 'NONE',  ( 0.000000000000000000, 0.000000000000000000, 325.0000000000000000 ) ) ;
#260 = VERTEX_POINT ( 'NONE', #25 ) ;
#261 = ADVANCED_FACE ( 'NONE', ( #107 ), #210, .T. ) ;
#262 = AXIS2_PLACEMENT_3D ( 'NONE', #303, #255, #212 ) ;
#263 = AXIS2_PLACEMENT_3D ( 'NONE', #190, #275, #279 ) ;
#264 = EDGE_LOOP ( 'NONE', ( #149, #183 ) ) ;
#265 = EDGE_LOOP ( 'NONE', ( #295, #14 ) ) ;
#266 = CARTESIAN_POINT ( 'NONE',  ( 0.000000000000000000, 0.000000000000000000, 10.19999999999998685 ) ) ;
#267 = AXIS2_PLACEMENT_3D ( 'NONE', #11, #97, #203 ) ;
#268 = DIRECTION ( 'NONE',  ( -0.000000000000000000, -0.000000000000000000, -1.000000000000000000 ) ) ;
#269 = ORIENTED_EDGE ( 'NONE', *, *, #174, .F. ) ;
#270 = CARTESIAN_POINT ( 'NONE',  ( -16.19999999999999929, 1.983927814618711846E-15, 9.999999999999992895 ) ) ;
#271 = VERTEX_POINT ( 'NONE', #41 ) ;
#272 = LINE ( 'NONE', #250, #71 ) ;
#273 = DIRECTION ( 'NONE',  ( 1.000000000000000000, 0.000000000000000000, 0.000000000000000000 ) ) ;
#274 = APPLICATION_PROTOCOL_DEFINITION ( 'international standard', 'config_control_design', 1994, #85 ) ;
#275 = DIRECTION ( 'NONE',  ( 1.224646799147353207E-16, 1.000000000000000000, -0.000000000000000000 ) ) ;
#276 = CIRCLE ( 'NONE', #140, 20.00000000000000000 ) ;
#277 = DATE_AND_TIME ( #79, #253 ) ;
#278 = CIRCLE ( 'NONE', #300, 0.2000000000000005107 ) ;
#279 = DIRECTION ( 'NONE',  ( -1.000000000000000000, 1.224646799147353947E-16, 0.000000000000000000 ) ) ;
#280 = PERSON_AND_ORGANIZATION ( #214, #126 ) ;
#281 = APPROVAL_STATUS ( 'not_yet_approved' ) ;
#282 = FACE_OUTER_BOUND ( 'NONE', #264, .T. ) ;
#283 = CC_DESIGN_PERSON_AND_ORGANIZATION_ASSIGNMENT ( #64, #307, ( #61 ) ) ;
#284 = DATE_AND_TIME ( #26, #240 ) ;
#285 = DIRECTION ( 'NONE',  ( 0.000000000000000000, 0.000000000000000000, 1.000000000000000000 ) ) ;
#286 = DESIGN_CONTEXT ( 'detailed design', #207, 'design' ) ;
#287 = CARTESIAN_POINT ( 'NONE',  ( 0.000000000000000000, 0.000000000000000000, 325.0000000000000000 ) ) ;
#288 = ORIENTED_EDGE ( 'NONE', *, *, #2, .F. ) ;
#289 = AXIS2_PLACEMENT_3D ( 'NONE', #291, #29, #167 ) ;
#290 = EDGE_CURVE ( 'NONE', #204, #3, #256, .T. ) ;
#291 = CARTESIAN_POINT ( 'NONE',  ( 0.000000000000000000, 0.000000000000000000, 10.00000000000000000 ) ) ;
#292 = LOCAL_TIME ( 11, 29, 29.00000000000000000, #20 ) ;
#293 = FACE_OUTER_BOUND ( 'NONE', #30, .T. ) ;
#294 = CARTESIAN_POINT ( 'NONE',  ( -16.00000000000000000, 0.000000000000000000, 325.0000000000000000 ) ) ;
#295 = ORIENTED_EDGE ( 'NONE', *, *, #290, .T. ) ;
#296 = EDGE_CURVE ( 'NONE', #139, #217, #19, .T. ) ;
#297 = CARTESIAN_POINT ( 'NONE',  ( 16.19999999999999929, 0.000000000000000000, 10.19999999999998685 ) ) ;
#298 = ORIENTED_EDGE ( 'NONE', *, *, #243, .T. ) ;
#299 = APPROVAL_PERSON_ORGANIZATION ( #67, #116, #305 ) ;
#300 = AXIS2_PLACEMENT_3D ( 'NONE', #297, #124, #148 ) ;
#301 = DIRECTION ( 'NONE',  ( -1.000000000000000000, 0.000000000000000000, 0.000000000000000000 ) ) ;
#302 = PRODUCT_DEFINITION ( 'NEZNÁMÝ', '', #61, #286 ) ;
#303 = CARTESIAN_POINT ( 'NONE',  ( 0.000000000000000000, 0.000000000000000000, 0.000000000000000000 ) ) ;
#304 = PERSON_AND_ORGANIZATION ( #214, #126 ) ;
#305 = APPROVAL_ROLE ( '' ) ;
#306 = CIRCLE ( 'NONE', #175, 16.00000000000000000 ) ;
#307 = PERSON_AND_ORGANIZATION_ROLE ( 'creator' ) ;
ENDSEC;
END-ISO-10303-21;
