ISO-10303-21;
HEADER;
FILE_DESCRIPTION (( 'STEP AP203' ),
    '1' );
FILE_NAME ('7699.STEP',
    '2022-07-07T10:40:24',
    ( '' ),
    ( '' ),
    'SwSTEP 2.0',
    'SolidWorks 2019',
    '' );
FILE_SCHEMA (( 'CONFIG_CONTROL_DESIGN' ));
ENDSEC;

DATA;
#1 = CC_DESIGN_APPROVAL ( #56, ( #247 ) ) ;
#2 = PERSON_AND_ORGANIZATION_ROLE ( 'design_owner' ) ;
#3 = AXIS2_PLACEMENT_3D ( 'NONE', #171, #269, #244 ) ;
#4 = DIRECTION ( 'NONE',  ( 0.000000000000000000, 0.000000000000000000, 1.000000000000000000 ) ) ;
#5 = ORIENTED_EDGE ( 'NONE', *, *, #185, .F. ) ;
#6 = CARTESIAN_POINT ( 'NONE',  ( -0.5999999999999999778, 0.000000000000000000, 201.2000000000000171 ) ) ;
#7 = LOCAL_TIME ( 12, 40, 24.00000000000000000, #283 ) ;
#8 = ORIENTED_EDGE ( 'NONE', *, *, #272, .T. ) ;
#9 = DIRECTION ( 'NONE',  ( 0.000000000000000000, 0.000000000000000000, 1.000000000000000000 ) ) ;
#10 = APPROVAL ( #192, 'NEURÈENÝ' ) ;
#11 = CYLINDRICAL_SURFACE ( 'NONE', #3, 0.5999999999999999778 ) ;
#12 = DIRECTION ( 'NONE',  ( 1.000000000000000000, 0.000000000000000000, 0.000000000000000000 ) ) ;
#13 = AXIS2_PLACEMENT_3D ( 'NONE', #262, #211, #61 ) ;
#14 = ORIENTED_EDGE ( 'NONE', *, *, #292, .T. ) ;
#15 = EDGE_CURVE ( 'NONE', #122, #77, #227, .T. ) ;
#16 = DIRECTION ( 'NONE',  ( 0.000000000000000000, 0.000000000000000000, 1.000000000000000000 ) ) ;
#17 = APPLICATION_CONTEXT ( 'configuration controlled 3d designs of mechanical parts and assemblies' ) ;
#18 = ORIENTED_EDGE ( 'NONE', *, *, #179, .F. ) ;
#19 = CALENDAR_DATE ( 2022, 7, 7 ) ;
#20 = CC_DESIGN_PERSON_AND_ORGANIZATION_ASSIGNMENT ( #111, #234, ( #247 ) ) ;
#21 = CARTESIAN_POINT ( 'NONE',  ( 0.000000000000000000, 0.000000000000000000, 201.2000000000000171 ) ) ;
#22 = CIRCLE ( 'NONE', #55, 1.250000000000000000 ) ;
#23 =( NAMED_UNIT ( * ) PLANE_ANGLE_UNIT ( ) SI_UNIT ( $, .RADIAN. ) );
#24 = APPROVAL_PERSON_ORGANIZATION ( #165, #10, #285 ) ;
#25 = CC_DESIGN_PERSON_AND_ORGANIZATION_ASSIGNMENT ( #239, #138, ( #41 ) ) ;
#26 = FACE_OUTER_BOUND ( 'NONE', #74, .T. ) ;
#27 = ORIENTED_EDGE ( 'NONE', *, *, #272, .F. ) ;
#28 = CARTESIAN_POINT ( 'NONE',  ( 0.000000000000000000, 0.000000000000000000, 0.000000000000000000 ) ) ;
#29 = ORIENTED_EDGE ( 'NONE', *, *, #179, .T. ) ;
#30 = DIRECTION ( 'NONE',  ( 1.224646799147353207E-16, 1.000000000000000000, -0.000000000000000000 ) ) ;
#31 = VECTOR ( 'NONE', #101, 1000.000000000000000 ) ;
#32 = LINE ( 'NONE', #6, #31 ) ;
#33 = EDGE_LOOP ( 'NONE', ( #206, #180, #170, #275 ) ) ;
#34 = PERSON ( 'NEURÈENÝ', 'NEURÈENÝ', 'NEURÈENÝ', ('NEURÈENÝ'), ('NEURÈENÝ'), ('NEURÈENÝ') ) ;
#35 = DIRECTION ( 'NONE',  ( 0.000000000000000000, 0.000000000000000000, 1.000000000000000000 ) ) ;
#36 = CYLINDRICAL_SURFACE ( 'NONE', #109, 0.5999999999999999778 ) ;
#37 = DIRECTION ( 'NONE',  ( -0.000000000000000000, -0.000000000000000000, -1.000000000000000000 ) ) ;
#38 = CARTESIAN_POINT ( 'NONE',  ( 0.5999999999999999778, 7.347880794884117764E-17, 201.2000000000000171 ) ) ;
#39 = CALENDAR_DATE ( 2022, 7, 7 ) ;
#40 = CARTESIAN_POINT ( 'NONE',  ( 0.7999999999999999334, 0.000000000000000000, 1.200000000000006173 ) ) ;
#41 = PRODUCT_DEFINITION_FORMATION_WITH_SPECIFIED_SOURCE ( 'LIBOVOLNÝ', '', #297, .NOT_KNOWN. ) ;
#42 = ORIENTED_EDGE ( 'NONE', *, *, #86, .F. ) ;
#43 = AXIS2_PLACEMENT_3D ( 'NONE', #291, #253, #166 ) ;
#44 = AXIS2_PLACEMENT_3D ( 'NONE', #278, #155, #87 ) ;
#45 = CC_DESIGN_PERSON_AND_ORGANIZATION_ASSIGNMENT ( #116, #73, ( #41 ) ) ;
#46 = AXIS2_PLACEMENT_3D ( 'NONE', #125, #4, #219 ) ;
#47 = ORIENTED_EDGE ( 'NONE', *, *, #94, .T. ) ;
#48 = DIRECTION ( 'NONE',  ( 1.000000000000000000, 0.000000000000000000, 0.000000000000000000 ) ) ;
#49 = UNCERTAINTY_MEASURE_WITH_UNIT (LENGTH_MEASURE( 1.000000000000000082E-05 ), #307, 'distance_accuracy_value', 'NONE');
#50 = ORIENTED_EDGE ( 'NONE', *, *, #112, .T. ) ;
#51 = FACE_OUTER_BOUND ( 'NONE', #277, .T. ) ;
#52 = DIRECTION ( 'NONE',  ( 0.000000000000000000, 0.000000000000000000, 1.000000000000000000 ) ) ;
#53 = ORIENTED_EDGE ( 'NONE', *, *, #72, .T. ) ;
#54 = PLANE ( 'NONE',  #178 ) ;
#55 = AXIS2_PLACEMENT_3D ( 'NONE', #105, #131, #182 ) ;
#56 = APPROVAL ( #189, 'NEURÈENÝ' ) ;
#57 = AXIS2_PLACEMENT_3D ( 'NONE', #202, #9, #296 ) ;
#58 = VERTEX_POINT ( 'NONE', #38 ) ;
#59 = DIRECTION ( 'NONE',  ( 0.000000000000000000, 0.000000000000000000, 1.000000000000000000 ) ) ;
#60 = ADVANCED_FACE ( 'NONE', ( #207 ), #280, .T. ) ;
#61 = DIRECTION ( 'NONE',  ( 1.000000000000000000, 0.000000000000000000, 0.000000000000000000 ) ) ;
#62 = CARTESIAN_POINT ( 'NONE',  ( 0.000000000000000000, 0.000000000000000000, 201.2000000000000171 ) ) ;
#63 = DIRECTION ( 'NONE',  ( 0.000000000000000000, 0.000000000000000000, 1.000000000000000000 ) ) ;
#64 = DIRECTION ( 'NONE',  ( 1.000000000000000000, 0.000000000000000000, 0.000000000000000000 ) ) ;
#65 = AXIS2_PLACEMENT_3D ( 'NONE', #173, #52, #268 ) ;
#66 = APPROVAL_ROLE ( '' ) ;
#67 = CARTESIAN_POINT ( 'NONE',  ( 0.000000000000000000, 0.000000000000000000, 1.199999999999999956 ) ) ;
#68 = CALENDAR_DATE ( 2022, 7, 7 ) ;
#69 = ADVANCED_FACE ( 'NONE', ( #130 ), #36, .T. ) ;
#70 = DATE_AND_TIME ( #39, #281 ) ;
#71 = AXIS2_PLACEMENT_3D ( 'NONE', #271, #30, #127 ) ;
#72 = EDGE_CURVE ( 'NONE', #58, #122, #250, .T. ) ;
#73 = PERSON_AND_ORGANIZATION_ROLE ( 'creator' ) ;
#74 = EDGE_LOOP ( 'NONE', ( #208, #172 ) ) ;
#75 = CARTESIAN_POINT ( 'NONE',  ( -0.5999999999999999778, 0.000000000000000000, 201.2000000000000171 ) ) ;
#76 = EDGE_CURVE ( 'NONE', #98, #107, #273, .T. ) ;
#77 = VERTEX_POINT ( 'NONE', #40 ) ;
#78 = CARTESIAN_POINT ( 'NONE',  ( 0.000000000000000000, 0.000000000000000000, 1.400000000000012346 ) ) ;
#79 = CARTESIAN_POINT ( 'NONE',  ( -1.250000000000000000, 0.000000000000000000, 1.199999999999999956 ) ) ;
#80 = ORIENTED_EDGE ( 'NONE', *, *, #292, .F. ) ;
#81 = FACE_BOUND ( 'NONE', #199, .T. ) ;
#82 = VERTEX_POINT ( 'NONE', #156 ) ;
#83 = AXIS2_PLACEMENT_3D ( 'NONE', #21, #16, #133 ) ;
#84 = PRODUCT_DEFINITION_SHAPE ( 'NONE', 'NONE',  #247 ) ;
#85 = ORIENTED_EDGE ( 'NONE', *, *, #220, .T. ) ;
#86 = EDGE_CURVE ( 'NONE', #221, #58, #152, .T. ) ;
#87 = DIRECTION ( 'NONE',  ( -1.000000000000000000, 0.000000000000000000, 0.000000000000000000 ) ) ;
#88 = EDGE_LOOP ( 'NONE', ( #96, #126, #47, #231 ) ) ;
#89 = CARTESIAN_POINT ( 'NONE',  ( 0.000000000000000000, 0.000000000000000000, 201.2000000000000171 ) ) ;
#90 = APPROVAL_STATUS ( 'not_yet_approved' ) ;
#91 = CIRCLE ( 'NONE', #139, 0.7999999999999999334 ) ;
#92 = MECHANICAL_CONTEXT ( 'NONE', #17, 'mechanical' ) ;
#93 = AXIS2_PLACEMENT_3D ( 'NONE', #28, #177, #228 ) ;
#94 = EDGE_CURVE ( 'NONE', #107, #98, #22, .T. ) ;
#95 = ORGANIZATION ( 'NEURÈENÝ', 'NEURÈENÝ', '' ) ;
#96 = ORIENTED_EDGE ( 'NONE', *, *, #306, .F. ) ;
#97 = PLANE ( 'NONE',  #93 ) ;
#98 = VERTEX_POINT ( 'NONE', #235 ) ;
#99 = CARTESIAN_POINT ( 'NONE',  ( 0.000000000000000000, 0.000000000000000000, 1.199999999999999956 ) ) ;
#100 = ORIENTED_EDGE ( 'NONE', *, *, #15, .F. ) ;
#101 = DIRECTION ( 'NONE',  ( -0.000000000000000000, -0.000000000000000000, -1.000000000000000000 ) ) ;
#102 = EDGE_CURVE ( 'NONE', #254, #98, #110, .T. ) ;
#103 = SECURITY_CLASSIFICATION ( '', '', #190 ) ;
#104 = CARTESIAN_POINT ( 'NONE',  ( -1.250000000000000000, 0.000000000000000000, 1.199999999999999956 ) ) ;
#105 = CARTESIAN_POINT ( 'NONE',  ( 0.000000000000000000, 0.000000000000000000, 0.000000000000000000 ) ) ;
#106 = CC_DESIGN_APPROVAL ( #274, ( #41 ) ) ;
#107 = VERTEX_POINT ( 'NONE', #305 ) ;
#108 = DATE_TIME_ROLE ( 'creation_date' ) ;
#109 = AXIS2_PLACEMENT_3D ( 'NONE', #62, #232, #184 ) ;
#110 = LINE ( 'NONE', #104, #259 ) ;
#111 = PERSON_AND_ORGANIZATION ( #34, #95 ) ;
#112 = EDGE_CURVE ( 'NONE', #58, #221, #118, .T. ) ;
#113 = COORDINATED_UNIVERSAL_TIME_OFFSET ( 1, 0, .AHEAD. ) ;
#114 = APPROVAL_DATE_TIME ( #240, #10 ) ;
#115 = ADVANCED_FACE ( 'NONE', ( #162 ), #136, .T. ) ;
#116 = PERSON_AND_ORGANIZATION ( #34, #95 ) ;
#117 = CARTESIAN_POINT ( 'NONE',  ( 0.000000000000000000, 0.000000000000000000, 1.199999999999999956 ) ) ;
#118 = CIRCLE ( 'NONE', #300, 0.5999999999999999778 ) ;
#119 = EDGE_LOOP ( 'NONE', ( #290, #42, #29, #8 ) ) ;
#120 = CARTESIAN_POINT ( 'NONE',  ( 0.5999999999999999778, 7.347880794884117764E-17, 1.400000000000012346 ) ) ;
#121 = ADVANCED_FACE ( 'NONE', ( #200 ), #97, .F. ) ;
#122 = VERTEX_POINT ( 'NONE', #120 ) ;
#123 = CARTESIAN_POINT ( 'NONE',  ( 1.250000000000000000, 1.530808498934191571E-16, 1.199999999999999956 ) ) ;
#124 = ORIENTED_EDGE ( 'NONE', *, *, #86, .T. ) ;
#125 = CARTESIAN_POINT ( 'NONE',  ( 0.000000000000000000, 0.000000000000000000, 1.400000000000012346 ) ) ;
#126 = ORIENTED_EDGE ( 'NONE', *, *, #145, .T. ) ;
#127 = DIRECTION ( 'NONE',  ( -1.000000000000000000, 1.224646799147352714E-16, 0.000000000000000000 ) ) ;
#128 = CARTESIAN_POINT ( 'NONE',  ( 0.5999999999999999778, 7.347880794884117764E-17, 201.2000000000000171 ) ) ;
#129 = ADVANCED_FACE ( 'NONE', ( #241 ), #54, .T. ) ;
#130 = FACE_OUTER_BOUND ( 'NONE', #119, .T. ) ;
#131 = DIRECTION ( 'NONE',  ( 0.000000000000000000, 0.000000000000000000, 1.000000000000000000 ) ) ;
#132 = APPROVAL_DATE_TIME ( #70, #56 ) ;
#133 = DIRECTION ( 'NONE',  ( 1.000000000000000000, 0.000000000000000000, 0.000000000000000000 ) ) ;
#134 = PERSON_AND_ORGANIZATION ( #34, #95 ) ;
#135 = PRODUCT_RELATED_PRODUCT_CATEGORY ( 'detail', '', ( #297 ) ) ;
#136 = CYLINDRICAL_SURFACE ( 'NONE', #176, 1.250000000000000000 ) ;
#137 = CARTESIAN_POINT ( 'NONE',  ( 0.000000000000000000, 0.000000000000000000, 1.199999999999999956 ) ) ;
#138 = PERSON_AND_ORGANIZATION_ROLE ( 'design_supplier' ) ;
#139 = AXIS2_PLACEMENT_3D ( 'NONE', #137, #238, #236 ) ;
#140 = ADVANCED_FACE ( 'NONE', ( #51 ), #11, .T. ) ;
#141 = PERSON_AND_ORGANIZATION ( #34, #95 ) ;
#142 = ADVANCED_BREP_SHAPE_REPRESENTATION ( '7699', ( #191, #13 ), #299 ) ;
#143 = DATE_AND_TIME ( #68, #263 ) ;
#144 = TOROIDAL_SURFACE ( 'NONE', #213, 0.7999999999999999334, 0.2000000000000000111 ) ;
#145 = EDGE_CURVE ( 'NONE', #82, #107, #149, .T. ) ;
#146 = ORIENTED_EDGE ( 'NONE', *, *, #112, .F. ) ;
#147 = CARTESIAN_POINT ( 'NONE',  ( 0.000000000000000000, 0.000000000000000000, 1.199999999999999956 ) ) ;
#148 = ORIENTED_EDGE ( 'NONE', *, *, #94, .F. ) ;
#149 = LINE ( 'NONE', #123, #161 ) ;
#150 = PLANE ( 'NONE',  #181 ) ;
#151 = DIRECTION ( 'NONE',  ( -0.000000000000000000, -0.000000000000000000, -1.000000000000000000 ) ) ;
#152 = CIRCLE ( 'NONE', #83, 0.5999999999999999778 ) ;
#153 = ORIENTED_EDGE ( 'NONE', *, *, #220, .F. ) ;
#154 = APPROVAL_PERSON_ORGANIZATION ( #134, #274, #66 ) ;
#155 = DIRECTION ( 'NONE',  ( -0.000000000000000000, -0.000000000000000000, -1.000000000000000000 ) ) ;
#156 = CARTESIAN_POINT ( 'NONE',  ( 1.250000000000000000, 1.530808498934191571E-16, 1.199999999999999956 ) ) ;
#157 = APPROVAL_ROLE ( '' ) ;
#158 = DIRECTION ( 'NONE',  ( 1.000000000000000000, 0.000000000000000000, 0.000000000000000000 ) ) ;
#159 = CC_DESIGN_DATE_AND_TIME_ASSIGNMENT ( #237, #108, ( #247 ) ) ;
#160 = COORDINATED_UNIVERSAL_TIME_OFFSET ( 1, 0, .AHEAD. ) ;
#161 = VECTOR ( 'NONE', #222, 1000.000000000000000 ) ;
#162 = FACE_OUTER_BOUND ( 'NONE', #33, .T. ) ;
#163 = CALENDAR_DATE ( 2022, 7, 7 ) ;
#164 = PERSON_AND_ORGANIZATION ( #34, #95 ) ;
#165 = PERSON_AND_ORGANIZATION ( #34, #95 ) ;
#166 = DIRECTION ( 'NONE',  ( 1.000000000000000000, 0.000000000000000000, 0.000000000000000000 ) ) ;
#167 = CC_DESIGN_APPROVAL ( #10, ( #103 ) ) ;
#168 = COORDINATED_UNIVERSAL_TIME_OFFSET ( 1, 0, .AHEAD. ) ;
#169 = EDGE_CURVE ( 'NONE', #254, #82, #255, .T. ) ;
#170 = ORIENTED_EDGE ( 'NONE', *, *, #102, .T. ) ;
#171 = CARTESIAN_POINT ( 'NONE',  ( 0.000000000000000000, 0.000000000000000000, 201.2000000000000171 ) ) ;
#172 = ORIENTED_EDGE ( 'NONE', *, *, #306, .T. ) ;
#173 = CARTESIAN_POINT ( 'NONE',  ( 0.000000000000000000, 0.000000000000000000, 1.400000000000012346 ) ) ;
#174 = DIRECTION ( 'NONE',  ( 1.000000000000000000, 0.000000000000000000, -0.000000000000000000 ) ) ;
#175 = ADVANCED_FACE ( 'NONE', ( #226 ), #144, .F. ) ;
#176 = AXIS2_PLACEMENT_3D ( 'NONE', #147, #151, #246 ) ;
#177 = DIRECTION ( 'NONE',  ( 0.000000000000000000, 0.000000000000000000, 1.000000000000000000 ) ) ;
#178 = AXIS2_PLACEMENT_3D ( 'NONE', #243, #294, #174 ) ;
#179 = EDGE_CURVE ( 'NONE', #221, #302, #32, .T. ) ;
#180 = ORIENTED_EDGE ( 'NONE', *, *, #169, .F. ) ;
#181 = AXIS2_PLACEMENT_3D ( 'NONE', #117, #217, #197 ) ;
#182 = DIRECTION ( 'NONE',  ( 1.000000000000000000, 0.000000000000000000, 0.000000000000000000 ) ) ;
#183 = AXIS2_PLACEMENT_3D ( 'NONE', #257, #301, #304 ) ;
#184 = DIRECTION ( 'NONE',  ( -1.000000000000000000, 0.000000000000000000, 0.000000000000000000 ) ) ;
#185 = EDGE_CURVE ( 'NONE', #122, #302, #286, .T. ) ;
#186 = APPLICATION_PROTOCOL_DEFINITION ( 'international standard', 'config_control_design', 1994, #198 ) ;
#187 = DIRECTION ( 'NONE',  ( 0.000000000000000000, 0.000000000000000000, 1.000000000000000000 ) ) ;
#188 = DIRECTION ( 'NONE',  ( 1.000000000000000000, 0.000000000000000000, 0.000000000000000000 ) ) ;
#189 = APPROVAL_STATUS ( 'not_yet_approved' ) ;
#190 = SECURITY_CLASSIFICATION_LEVEL ( 'unclassified' ) ;
#191 = MANIFOLD_SOLID_BREP ( 'Zaoblit1', #216 ) ;
#192 = APPROVAL_STATUS ( 'not_yet_approved' ) ;
#193 = LOCAL_TIME ( 12, 40, 24.00000000000000000, #214 ) ;
#194 = CC_DESIGN_PERSON_AND_ORGANIZATION_ASSIGNMENT ( #141, #215, ( #103 ) ) ;
#195 = CALENDAR_DATE ( 2022, 7, 7 ) ;
#196 = EDGE_LOOP ( 'NONE', ( #153, #5, #225, #80 ) ) ;
#197 = DIRECTION ( 'NONE',  ( 1.000000000000000000, 0.000000000000000000, -0.000000000000000000 ) ) ;
#198 = APPLICATION_CONTEXT ( 'configuration controlled 3d designs of mechanical parts and assemblies' ) ;
#199 = EDGE_LOOP ( 'NONE', ( #266, #14 ) ) ;
#200 = FACE_OUTER_BOUND ( 'NONE', #204, .T. ) ;
#201 = CC_DESIGN_SECURITY_CLASSIFICATION ( #103, ( #41 ) ) ;
#202 = CARTESIAN_POINT ( 'NONE',  ( 0.000000000000000000, 0.000000000000000000, 1.199999999999999956 ) ) ;
#203 = FACE_OUTER_BOUND ( 'NONE', #218, .T. ) ;
#204 = EDGE_LOOP ( 'NONE', ( #233, #148 ) ) ;
#205 = LOCAL_TIME ( 12, 40, 24.00000000000000000, #113 ) ;
#206 = ORIENTED_EDGE ( 'NONE', *, *, #145, .F. ) ;
#207 = FACE_OUTER_BOUND ( 'NONE', #88, .T. ) ;
#208 = ORIENTED_EDGE ( 'NONE', *, *, #169, .T. ) ;
#209 = VECTOR ( 'NONE', #37, 1000.000000000000000 ) ;
#210 = DIRECTION ( 'NONE',  ( -0.000000000000000000, -0.000000000000000000, -1.000000000000000000 ) ) ;
#211 = DIRECTION ( 'NONE',  ( 0.000000000000000000, 0.000000000000000000, 1.000000000000000000 ) ) ;
#212 = CARTESIAN_POINT ( 'NONE',  ( -0.7999999999999999334, 9.797174393178824918E-17, 1.200000000000006173 ) ) ;
#213 = AXIS2_PLACEMENT_3D ( 'NONE', #78, #35, #48 ) ;
#214 = COORDINATED_UNIVERSAL_TIME_OFFSET ( 1, 0, .AHEAD. ) ;
#215 = PERSON_AND_ORGANIZATION_ROLE ( 'classification_officer' ) ;
#216 = CLOSED_SHELL ( 'NONE', ( #229, #140, #60, #115, #267, #121, #69, #129, #175 ) ) ;
#217 = DIRECTION ( 'NONE',  ( 0.000000000000000000, 0.000000000000000000, 1.000000000000000000 ) ) ;
#218 = EDGE_LOOP ( 'NONE', ( #27, #85, #252, #100 ) ) ;
#219 = DIRECTION ( 'NONE',  ( 1.000000000000000000, 0.000000000000000000, 0.000000000000000000 ) ) ;
#220 = EDGE_CURVE ( 'NONE', #302, #298, #293, .T. ) ;
#221 = VERTEX_POINT ( 'NONE', #75 ) ;
#222 = DIRECTION ( 'NONE',  ( -0.000000000000000000, -0.000000000000000000, -1.000000000000000000 ) ) ;
#223 = TOROIDAL_SURFACE ( 'NONE', #65, 0.7999999999999999334, 0.2000000000000000111 ) ;
#224 = DESIGN_CONTEXT ( 'detailed design', #198, 'design' ) ;
#225 = ORIENTED_EDGE ( 'NONE', *, *, #15, .T. ) ;
#226 = FACE_OUTER_BOUND ( 'NONE', #196, .T. ) ;
#227 = CIRCLE ( 'NONE', #183, 0.2000000000000000944 ) ;
#228 = DIRECTION ( 'NONE',  ( 1.000000000000000000, 0.000000000000000000, -0.000000000000000000 ) ) ;
#229 = ADVANCED_FACE ( 'NONE', ( #203 ), #223, .F. ) ;
#230 = CIRCLE ( 'NONE', #245, 0.7999999999999999334 ) ;
#231 = ORIENTED_EDGE ( 'NONE', *, *, #102, .F. ) ;
#232 = DIRECTION ( 'NONE',  ( -0.000000000000000000, -0.000000000000000000, -1.000000000000000000 ) ) ;
#233 = ORIENTED_EDGE ( 'NONE', *, *, #76, .F. ) ;
#234 = PERSON_AND_ORGANIZATION_ROLE ( 'creator' ) ;
#235 = CARTESIAN_POINT ( 'NONE',  ( -1.250000000000000000, 0.000000000000000000, 0.000000000000000000 ) ) ;
#236 = DIRECTION ( 'NONE',  ( 1.000000000000000000, 0.000000000000000000, 0.000000000000000000 ) ) ;
#237 = DATE_AND_TIME ( #19, #7 ) ;
#238 = DIRECTION ( 'NONE',  ( -0.000000000000000000, -0.000000000000000000, -1.000000000000000000 ) ) ;
#239 = PERSON_AND_ORGANIZATION ( #34, #95 ) ;
#240 = DATE_AND_TIME ( #195, #193 ) ;
#241 = FACE_OUTER_BOUND ( 'NONE', #270, .T. ) ;
#242 = ORIENTED_EDGE ( 'NONE', *, *, #185, .T. ) ;
#243 = CARTESIAN_POINT ( 'NONE',  ( 0.000000000000000000, 0.000000000000000000, 201.2000000000000171 ) ) ;
#244 = DIRECTION ( 'NONE',  ( -1.000000000000000000, 0.000000000000000000, 0.000000000000000000 ) ) ;
#245 = AXIS2_PLACEMENT_3D ( 'NONE', #99, #295, #12 ) ;
#246 = DIRECTION ( 'NONE',  ( -1.000000000000000000, 0.000000000000000000, 0.000000000000000000 ) ) ;
#247 = PRODUCT_DEFINITION ( 'NEZNÁMÝ', '', #41, #224 ) ;
#248 = CARTESIAN_POINT ( 'NONE',  ( 0.000000000000000000, 0.000000000000000000, 0.000000000000000000 ) ) ;
#249 = CIRCLE ( 'NONE', #43, 0.5999999999999999778 ) ;
#250 = LINE ( 'NONE', #128, #209 ) ;
#251 = CC_DESIGN_PERSON_AND_ORGANIZATION_ASSIGNMENT ( #164, #2, ( #297 ) ) ;
#252 = ORIENTED_EDGE ( 'NONE', *, *, #260, .F. ) ;
#253 = DIRECTION ( 'NONE',  ( 0.000000000000000000, 0.000000000000000000, 1.000000000000000000 ) ) ;
#254 = VERTEX_POINT ( 'NONE', #79 ) ;
#255 = CIRCLE ( 'NONE', #57, 1.250000000000000000 ) ;
#256 =( NAMED_UNIT ( * ) SI_UNIT ( $, .STERADIAN. ) SOLID_ANGLE_UNIT ( ) );
#257 = CARTESIAN_POINT ( 'NONE',  ( 0.7999999999999999334, 0.000000000000000000, 1.400000000000012346 ) ) ;
#258 = DATE_AND_TIME ( #163, #205 ) ;
#259 = VECTOR ( 'NONE', #210, 1000.000000000000000 ) ;
#260 = EDGE_CURVE ( 'NONE', #77, #298, #230, .T. ) ;
#261 = PERSON_AND_ORGANIZATION ( #34, #95 ) ;
#262 = CARTESIAN_POINT ( 'NONE',  ( 0.000000000000000000, 0.000000000000000000, 0.000000000000000000 ) ) ;
#263 = LOCAL_TIME ( 12, 40, 24.00000000000000000, #168 ) ;
#264 = SHAPE_DEFINITION_REPRESENTATION ( #84, #142 ) ;
#265 = CIRCLE ( 'NONE', #303, 1.250000000000000000 ) ;
#266 = ORIENTED_EDGE ( 'NONE', *, *, #260, .T. ) ;
#267 = ADVANCED_FACE ( 'NONE', ( #81, #26 ), #150, .T. ) ;
#268 = DIRECTION ( 'NONE',  ( 1.000000000000000000, 0.000000000000000000, 0.000000000000000000 ) ) ;
#269 = DIRECTION ( 'NONE',  ( -0.000000000000000000, -0.000000000000000000, -1.000000000000000000 ) ) ;
#270 = EDGE_LOOP ( 'NONE', ( #124, #50 ) ) ;
#271 = CARTESIAN_POINT ( 'NONE',  ( -0.7999999999999999334, 9.797174393178824918E-17, 1.400000000000012346 ) ) ;
#272 = EDGE_CURVE ( 'NONE', #302, #122, #249, .T. ) ;
#273 = CIRCLE ( 'NONE', #288, 1.250000000000000000 ) ;
#274 = APPROVAL ( #90, 'NEURÈENÝ' ) ;
#275 = ORIENTED_EDGE ( 'NONE', *, *, #76, .T. ) ;
#276 = APPROVAL_PERSON_ORGANIZATION ( #261, #56, #157 ) ;
#277 = EDGE_LOOP ( 'NONE', ( #146, #53, #242, #18 ) ) ;
#278 = CARTESIAN_POINT ( 'NONE',  ( 0.000000000000000000, 0.000000000000000000, 1.199999999999999956 ) ) ;
#279 = CARTESIAN_POINT ( 'NONE',  ( -0.5999999999999999778, 0.000000000000000000, 1.400000000000012346 ) ) ;
#280 = CYLINDRICAL_SURFACE ( 'NONE', #44, 1.250000000000000000 ) ;
#281 = LOCAL_TIME ( 12, 40, 24.00000000000000000, #160 ) ;
#282 = CC_DESIGN_DATE_AND_TIME_ASSIGNMENT ( #143, #289, ( #103 ) ) ;
#283 = COORDINATED_UNIVERSAL_TIME_OFFSET ( 1, 0, .AHEAD. ) ;
#284 = APPLICATION_PROTOCOL_DEFINITION ( 'international standard', 'config_control_design', 1994, #17 ) ;
#285 = APPROVAL_ROLE ( '' ) ;
#286 = CIRCLE ( 'NONE', #46, 0.5999999999999999778 ) ;
#287 = APPROVAL_DATE_TIME ( #258, #274 ) ;
#288 = AXIS2_PLACEMENT_3D ( 'NONE', #248, #59, #158 ) ;
#289 = DATE_TIME_ROLE ( 'classification_date' ) ;
#290 = ORIENTED_EDGE ( 'NONE', *, *, #72, .F. ) ;
#291 = CARTESIAN_POINT ( 'NONE',  ( 0.000000000000000000, 0.000000000000000000, 1.400000000000012346 ) ) ;
#292 = EDGE_CURVE ( 'NONE', #298, #77, #91, .T. ) ;
#293 = CIRCLE ( 'NONE', #71, 0.2000000000000000944 ) ;
#294 = DIRECTION ( 'NONE',  ( 0.000000000000000000, 0.000000000000000000, 1.000000000000000000 ) ) ;
#295 = DIRECTION ( 'NONE',  ( -0.000000000000000000, -0.000000000000000000, -1.000000000000000000 ) ) ;
#296 = DIRECTION ( 'NONE',  ( 1.000000000000000000, 0.000000000000000000, 0.000000000000000000 ) ) ;
#297 = PRODUCT ( '7699', '7699', '', ( #92 ) ) ;
#298 = VERTEX_POINT ( 'NONE', #212 ) ;
#299 =( GEOMETRIC_REPRESENTATION_CONTEXT ( 3 ) GLOBAL_UNCERTAINTY_ASSIGNED_CONTEXT ( ( #49 ) ) GLOBAL_UNIT_ASSIGNED_CONTEXT ( ( #307, #23, #256 ) ) REPRESENTATION_CONTEXT ( 'NONE', 'WORKASPACE' ) );
#300 = AXIS2_PLACEMENT_3D ( 'NONE', #89, #187, #64 ) ;
#301 = DIRECTION ( 'NONE',  ( 0.000000000000000000, -1.000000000000000000, 0.000000000000000000 ) ) ;
#302 = VERTEX_POINT ( 'NONE', #279 ) ;
#303 = AXIS2_PLACEMENT_3D ( 'NONE', #67, #63, #188 ) ;
#304 = DIRECTION ( 'NONE',  ( 0.000000000000000000, 0.000000000000000000, -1.000000000000000000 ) ) ;
#305 = CARTESIAN_POINT ( 'NONE',  ( 1.250000000000000000, 1.530808498934191571E-16, 0.000000000000000000 ) ) ;
#306 = EDGE_CURVE ( 'NONE', #82, #254, #265, .T. ) ;
#307 =( LENGTH_UNIT ( ) NAMED_UNIT ( * ) SI_UNIT ( .MILLI., .METRE. ) );
ENDSEC;
END-ISO-10303-21;
