ISO-10303-21;
HEADER;
FILE_DESCRIPTION (( 'STEP AP203' ),
    '1' );
FILE_NAME ('e4e2.STEP',
    '2022-07-07T09:54:45',
    ( '' ),
    ( '' ),
    'SwSTEP 2.0',
    'SolidWorks 2019',
    '' );
FILE_SCHEMA (( 'CONFIG_CONTROL_DESIGN' ));
ENDSEC;

DATA;
#1 = LOCAL_TIME ( 11, 54, 45.00000000000000000, #45 ) ;
#2 = CIRCLE ( 'NONE', #179, 0.1999999999999996503 ) ;
#3 = CARTESIAN_POINT ( 'NONE',  ( 0.000000000000000000, 0.000000000000000000, 5.000000000000000000 ) ) ;
#4 = ORIENTED_EDGE ( 'NONE', *, *, #38, .F. ) ;
#5 = DIRECTION ( 'NONE',  ( -0.000000000000000000, -0.000000000000000000, -1.000000000000000000 ) ) ;
#6 = AXIS2_PLACEMENT_3D ( 'NONE', #224, #59, #296 ) ;
#7 = FACE_OUTER_BOUND ( 'NONE', #195, .T. ) ;
#8 = APPROVAL ( #256, 'NEURÈENÝ' ) ;
#9 = DIRECTION ( 'NONE',  ( 0.000000000000000000, 0.000000000000000000, 1.000000000000000000 ) ) ;
#10 = ORIENTED_EDGE ( 'NONE', *, *, #133, .F. ) ;
#11 = DIRECTION ( 'NONE',  ( -0.000000000000000000, -0.000000000000000000, -1.000000000000000000 ) ) ;
#12 = ADVANCED_FACE ( 'NONE', ( #244 ), #304, .T. ) ;
#13 = EDGE_LOOP ( 'NONE', ( #47, #291 ) ) ;
#14 = EDGE_LOOP ( 'NONE', ( #198, #29, #250, #277 ) ) ;
#15 = CARTESIAN_POINT ( 'NONE',  ( 0.000000000000000000, 0.000000000000000000, 205.0000000000000284 ) ) ;
#16 = APPROVAL_PERSON_ORGANIZATION ( #280, #254, #235 ) ;
#17 = AXIS2_PLACEMENT_3D ( 'NONE', #191, #98, #264 ) ;
#18 = CARTESIAN_POINT ( 'NONE',  ( 0.000000000000000000, 0.000000000000000000, 0.000000000000000000 ) ) ;
#19 = VERTEX_POINT ( 'NONE', #259 ) ;
#20 = PERSON_AND_ORGANIZATION ( #159, #87 ) ;
#21 = CC_DESIGN_DATE_AND_TIME_ASSIGNMENT ( #109, #91, ( #57 ) ) ;
#22 = CARTESIAN_POINT ( 'NONE',  ( 0.000000000000000000, 0.000000000000000000, 5.000000000000000000 ) ) ;
#23 = APPROVAL_ROLE ( '' ) ;
#24 = VERTEX_POINT ( 'NONE', #239 ) ;
#25 = APPROVAL_STATUS ( 'not_yet_approved' ) ;
#26 = CARTESIAN_POINT ( 'NONE',  ( 5.200000000000001066, 0.000000000000000000, 5.200000000000009948 ) ) ;
#27 = CARTESIAN_POINT ( 'NONE',  ( 0.000000000000000000, 0.000000000000000000, 0.000000000000000000 ) ) ;
#28 = AXIS2_PLACEMENT_3D ( 'NONE', #27, #46, #101 ) ;
#29 = ORIENTED_EDGE ( 'NONE', *, *, #157, .F. ) ;
#30 = CARTESIAN_POINT ( 'NONE',  ( 5.000000000000000888, 6.123233995736767268E-16, 205.0000000000000284 ) ) ;
#31 = EDGE_CURVE ( 'NONE', #76, #252, #172, .T. ) ;
#32 = FACE_OUTER_BOUND ( 'NONE', #13, .T. ) ;
#33 = AXIS2_PLACEMENT_3D ( 'NONE', #171, #150, #81 ) ;
#34 = FACE_OUTER_BOUND ( 'NONE', #200, .T. ) ;
#35 = DIRECTION ( 'NONE',  ( -1.000000000000000000, 1.224646799147353454E-16, 0.000000000000000000 ) ) ;
#36 = DIRECTION ( 'NONE',  ( 1.000000000000000000, 0.000000000000000000, 0.000000000000000000 ) ) ;
#37 = PRODUCT_DEFINITION_FORMATION_WITH_SPECIFIED_SOURCE ( 'LIBOVOLNÝ', '', #272, .NOT_KNOWN. ) ;
#38 = EDGE_CURVE ( 'NONE', #24, #298, #300, .T. ) ;
#39 = PRODUCT_DEFINITION_SHAPE ( 'NONE', 'NONE',  #57 ) ;
#40 = PERSON_AND_ORGANIZATION_ROLE ( 'design_supplier' ) ;
#41 = APPROVAL_PERSON_ORGANIZATION ( #71, #68, #23 ) ;
#42 = CIRCLE ( 'NONE', #219, 5.000000000000000888 ) ;
#43 = APPROVAL_DATE_TIME ( #139, #254 ) ;
#44 = EDGE_CURVE ( 'NONE', #252, #260, #216, .T. ) ;
#45 = COORDINATED_UNIVERSAL_TIME_OFFSET ( 1, 0, .AHEAD. ) ;
#46 = DIRECTION ( 'NONE',  ( 0.000000000000000000, 0.000000000000000000, 1.000000000000000000 ) ) ;
#47 = ORIENTED_EDGE ( 'NONE', *, *, #31, .T. ) ;
#48 = DIRECTION ( 'NONE',  ( -0.000000000000000000, -0.000000000000000000, -1.000000000000000000 ) ) ;
#49 = AXIS2_PLACEMENT_3D ( 'NONE', #275, #84, #268 ) ;
#50 = APPROVAL_DATE_TIME ( #238, #8 ) ;
#51 = FACE_OUTER_BOUND ( 'NONE', #99, .T. ) ;
#52 = DIRECTION ( 'NONE',  ( 1.000000000000000000, 0.000000000000000000, 0.000000000000000000 ) ) ;
#53 = DIRECTION ( 'NONE',  ( 1.000000000000000000, 0.000000000000000000, -0.000000000000000000 ) ) ;
#54 = ORIENTED_EDGE ( 'NONE', *, *, #274, .F. ) ;
#55 = CARTESIAN_POINT ( 'NONE',  ( 0.000000000000000000, 0.000000000000000000, 5.000000000000000000 ) ) ;
#56 = VERTEX_POINT ( 'NONE', #117 ) ;
#57 = PRODUCT_DEFINITION ( 'NEZNÁMÝ', '', #37, #229 ) ;
#58 = CARTESIAN_POINT ( 'NONE',  ( 8.000000000000000000, 9.797174393178825657E-16, 5.000000000000000000 ) ) ;
#59 = DIRECTION ( 'NONE',  ( 0.000000000000000000, 0.000000000000000000, 1.000000000000000000 ) ) ;
#60 = AXIS2_PLACEMENT_3D ( 'NONE', #180, #276, #63 ) ;
#61 = CARTESIAN_POINT ( 'NONE',  ( 5.000000000000000888, 6.123233995736767268E-16, 5.200000000000009948 ) ) ;
#62 = VERTEX_POINT ( 'NONE', #266 ) ;
#63 = DIRECTION ( 'NONE',  ( 1.000000000000000000, 0.000000000000000000, 0.000000000000000000 ) ) ;
#64 = LOCAL_TIME ( 11, 54, 45.00000000000000000, #255 ) ;
#65 = AXIS2_PLACEMENT_3D ( 'NONE', #214, #283, #72 ) ;
#66 = TOROIDAL_SURFACE ( 'NONE', #60, 5.200000000000001066, 0.2000000000000000111 ) ;
#67 = ORIENTED_EDGE ( 'NONE', *, *, #157, .T. ) ;
#68 = APPROVAL ( #302, 'NEURÈENÝ' ) ;
#69 = APPROVAL_ROLE ( '' ) ;
#70 = ADVANCED_FACE ( 'NONE', ( #221 ), #236, .T. ) ;
#71 = PERSON_AND_ORGANIZATION ( #159, #87 ) ;
#72 = DIRECTION ( 'NONE',  ( 1.000000000000000000, 0.000000000000000000, 0.000000000000000000 ) ) ;
#73 = ORIENTED_EDGE ( 'NONE', *, *, #234, .T. ) ;
#74 =( NAMED_UNIT ( * ) SI_UNIT ( $, .STERADIAN. ) SOLID_ANGLE_UNIT ( ) );
#75 = AXIS2_PLACEMENT_3D ( 'NONE', #176, #132, #228 ) ;
#76 = VERTEX_POINT ( 'NONE', #113 ) ;
#77 = EDGE_CURVE ( 'NONE', #298, #24, #167, .T. ) ;
#78 = CARTESIAN_POINT ( 'NONE',  ( 0.000000000000000000, 0.000000000000000000, 205.0000000000000284 ) ) ;
#79 = ORIENTED_EDGE ( 'NONE', *, *, #120, .T. ) ;
#80 = ORIENTED_EDGE ( 'NONE', *, *, #38, .T. ) ;
#81 = DIRECTION ( 'NONE',  ( 1.000000000000000000, 0.000000000000000000, 0.000000000000000000 ) ) ;
#82 = EDGE_CURVE ( 'NONE', #19, #265, #184, .T. ) ;
#83 = AXIS2_PLACEMENT_3D ( 'NONE', #18, #136, #142 ) ;
#84 = DIRECTION ( 'NONE',  ( -0.000000000000000000, -0.000000000000000000, -1.000000000000000000 ) ) ;
#85 = CC_DESIGN_APPROVAL ( #8, ( #57 ) ) ;
#86 = LINE ( 'NONE', #58, #267 ) ;
#87 = ORGANIZATION ( 'NEURÈENÝ', 'NEURÈENÝ', '' ) ;
#88 = CALENDAR_DATE ( 2022, 7, 7 ) ;
#89 = CALENDAR_DATE ( 2022, 7, 7 ) ;
#90 = CC_DESIGN_PERSON_AND_ORGANIZATION_ASSIGNMENT ( #110, #281, ( #57 ) ) ;
#91 = DATE_TIME_ROLE ( 'creation_date' ) ;
#92 = ORIENTED_EDGE ( 'NONE', *, *, #175, .T. ) ;
#93 = DATE_AND_TIME ( #258, #237 ) ;
#94 = ORIENTED_EDGE ( 'NONE', *, *, #77, .F. ) ;
#95 = COORDINATED_UNIVERSAL_TIME_OFFSET ( 1, 0, .AHEAD. ) ;
#96 = DIRECTION ( 'NONE',  ( -1.000000000000000000, 0.000000000000000000, 0.000000000000000000 ) ) ;
#97 = ADVANCED_FACE ( 'NONE', ( #165, #51 ), #146, .T. ) ;
#98 = DIRECTION ( 'NONE',  ( 0.000000000000000000, 0.000000000000000000, 1.000000000000000000 ) ) ;
#99 = EDGE_LOOP ( 'NONE', ( #67, #152 ) ) ;
#100 = DIRECTION ( 'NONE',  ( -0.000000000000000000, -0.000000000000000000, -1.000000000000000000 ) ) ;
#101 = DIRECTION ( 'NONE',  ( 1.000000000000000000, 0.000000000000000000, 0.000000000000000000 ) ) ;
#102 = CYLINDRICAL_SURFACE ( 'NONE', #183, 5.000000000000000888 ) ;
#103 = AXIS2_PLACEMENT_3D ( 'NONE', #15, #9, #251 ) ;
#104 = CARTESIAN_POINT ( 'NONE',  ( 0.000000000000000000, 0.000000000000000000, 5.200000000000009948 ) ) ;
#105 =( LENGTH_UNIT ( ) NAMED_UNIT ( * ) SI_UNIT ( .MILLI., .METRE. ) );
#106 = FACE_OUTER_BOUND ( 'NONE', #121, .T. ) ;
#107 = CC_DESIGN_APPROVAL ( #254, ( #37 ) ) ;
#108 = CARTESIAN_POINT ( 'NONE',  ( -5.200000000000001066, 6.368163355566237368E-16, 5.200000000000009948 ) ) ;
#109 = DATE_AND_TIME ( #209, #64 ) ;
#110 = PERSON_AND_ORGANIZATION ( #159, #87 ) ;
#111 = CALENDAR_DATE ( 2022, 7, 7 ) ;
#112 = CC_DESIGN_APPROVAL ( #68, ( #178 ) ) ;
#113 = CARTESIAN_POINT ( 'NONE',  ( -5.000000000000000888, 0.000000000000000000, 205.0000000000000284 ) ) ;
#114 = DIRECTION ( 'NONE',  ( 1.000000000000000000, 0.000000000000000000, 0.000000000000000000 ) ) ;
#115 = EDGE_CURVE ( 'NONE', #260, #134, #2, .T. ) ;
#116 = DIRECTION ( 'NONE',  ( 0.000000000000000000, -1.000000000000000000, 0.000000000000000000 ) ) ;
#117 = CARTESIAN_POINT ( 'NONE',  ( -5.000000000000000888, 0.000000000000000000, 5.200000000000009948 ) ) ;
#118 = CIRCLE ( 'NONE', #161, 5.000000000000000888 ) ;
#119 = ORIENTED_EDGE ( 'NONE', *, *, #175, .F. ) ;
#120 = EDGE_CURVE ( 'NONE', #56, #260, #42, .T. ) ;
#121 = EDGE_LOOP ( 'NONE', ( #10, #122, #124, #119 ) ) ;
#122 = ORIENTED_EDGE ( 'NONE', *, *, #44, .T. ) ;
#123 = CARTESIAN_POINT ( 'NONE',  ( -8.000000000000000000, 0.000000000000000000, 5.000000000000000000 ) ) ;
#124 = ORIENTED_EDGE ( 'NONE', *, *, #245, .T. ) ;
#125 = DIRECTION ( 'NONE',  ( -0.000000000000000000, -0.000000000000000000, -1.000000000000000000 ) ) ;
#126 =( GEOMETRIC_REPRESENTATION_CONTEXT ( 3 ) GLOBAL_UNCERTAINTY_ASSIGNED_CONTEXT ( ( #203 ) ) GLOBAL_UNIT_ASSIGNED_CONTEXT ( ( #105, #201, #74 ) ) REPRESENTATION_CONTEXT ( 'NONE', 'WORKASPACE' ) );
#127 = ORIENTED_EDGE ( 'NONE', *, *, #274, .T. ) ;
#128 = AXIS2_PLACEMENT_3D ( 'NONE', #3, #144, #168 ) ;
#129 = EDGE_LOOP ( 'NONE', ( #127, #240 ) ) ;
#130 = DIRECTION ( 'NONE',  ( 0.000000000000000000, 0.000000000000000000, 1.000000000000000000 ) ) ;
#131 = ORIENTED_EDGE ( 'NONE', *, *, #44, .F. ) ;
#132 = DIRECTION ( 'NONE',  ( 0.000000000000000000, 0.000000000000000000, 1.000000000000000000 ) ) ;
#133 = EDGE_CURVE ( 'NONE', #252, #76, #118, .T. ) ;
#134 = VERTEX_POINT ( 'NONE', #147 ) ;
#135 = LOCAL_TIME ( 11, 54, 45.00000000000000000, #95 ) ;
#136 = DIRECTION ( 'NONE',  ( 0.000000000000000000, 0.000000000000000000, 1.000000000000000000 ) ) ;
#137 = AXIS2_PLACEMENT_3D ( 'NONE', #170, #192, #53 ) ;
#138 = SECURITY_CLASSIFICATION_LEVEL ( 'unclassified' ) ;
#139 = DATE_AND_TIME ( #111, #1 ) ;
#140 = ORIENTED_EDGE ( 'NONE', *, *, #241, .F. ) ;
#141 = CARTESIAN_POINT ( 'NONE',  ( 5.000000000000000888, 6.123233995736767268E-16, 205.0000000000000284 ) ) ;
#142 = DIRECTION ( 'NONE',  ( 1.000000000000000000, 0.000000000000000000, 0.000000000000000000 ) ) ;
#143 = LOCAL_TIME ( 11, 54, 45.00000000000000000, #212 ) ;
#144 = DIRECTION ( 'NONE',  ( -0.000000000000000000, -0.000000000000000000, -1.000000000000000000 ) ) ;
#145 = APPLICATION_PROTOCOL_DEFINITION ( 'international standard', 'config_control_design', 1994, #193 ) ;
#146 = PLANE ( 'NONE',  #137 ) ;
#147 = CARTESIAN_POINT ( 'NONE',  ( 5.200000000000001066, 0.000000000000000000, 5.000000000000005329 ) ) ;
#148 = ADVANCED_FACE ( 'NONE', ( #290 ), #66, .F. ) ;
#149 = PLANE ( 'NONE',  #103 ) ;
#150 = DIRECTION ( 'NONE',  ( 0.000000000000000000, 0.000000000000000000, 1.000000000000000000 ) ) ;
#151 = CC_DESIGN_PERSON_AND_ORGANIZATION_ASSIGNMENT ( #282, #190, ( #272 ) ) ;
#152 = ORIENTED_EDGE ( 'NONE', *, *, #82, .T. ) ;
#153 = CIRCLE ( 'NONE', #33, 8.000000000000000000 ) ;
#154 = ORIENTED_EDGE ( 'NONE', *, *, #120, .F. ) ;
#155 = CARTESIAN_POINT ( 'NONE',  ( -8.000000000000000000, 0.000000000000000000, 0.000000000000000000 ) ) ;
#156 = DIRECTION ( 'NONE',  ( -0.000000000000000000, -0.000000000000000000, -1.000000000000000000 ) ) ;
#157 = EDGE_CURVE ( 'NONE', #265, #19, #153, .T. ) ;
#158 = ORIENTED_EDGE ( 'NONE', *, *, #245, .F. ) ;
#159 = PERSON ( 'NEURÈENÝ', 'NEURÈENÝ', 'NEURÈENÝ', ('NEURÈENÝ'), ('NEURÈENÝ'), ('NEURÈENÝ') ) ;
#160 = PERSON_AND_ORGANIZATION_ROLE ( 'creator' ) ;
#161 = AXIS2_PLACEMENT_3D ( 'NONE', #78, #169, #52 ) ;
#162 = SHAPE_DEFINITION_REPRESENTATION ( #39, #284 ) ;
#163 = ORIENTED_EDGE ( 'NONE', *, *, #82, .F. ) ;
#164 = PERSON_AND_ORGANIZATION ( #159, #87 ) ;
#165 = FACE_BOUND ( 'NONE', #129, .T. ) ;
#166 = MECHANICAL_CONTEXT ( 'NONE', #193, 'mechanical' ) ;
#167 = CIRCLE ( 'NONE', #65, 8.000000000000000000 ) ;
#168 = DIRECTION ( 'NONE',  ( -1.000000000000000000, 0.000000000000000000, 0.000000000000000000 ) ) ;
#169 = DIRECTION ( 'NONE',  ( 0.000000000000000000, 0.000000000000000000, 1.000000000000000000 ) ) ;
#170 = CARTESIAN_POINT ( 'NONE',  ( 0.000000000000000000, 0.000000000000000000, 5.000000000000000000 ) ) ;
#171 = CARTESIAN_POINT ( 'NONE',  ( 0.000000000000000000, 0.000000000000000000, 5.000000000000000000 ) ) ;
#172 = CIRCLE ( 'NONE', #232, 5.000000000000000888 ) ;
#173 = APPLICATION_CONTEXT ( 'configuration controlled 3d designs of mechanical parts and assemblies' ) ;
#174 = CARTESIAN_POINT ( 'NONE',  ( -8.000000000000000000, 0.000000000000000000, 5.000000000000000000 ) ) ;
#175 = EDGE_CURVE ( 'NONE', #76, #56, #247, .T. ) ;
#176 = CARTESIAN_POINT ( 'NONE',  ( 0.000000000000000000, 0.000000000000000000, 0.000000000000000000 ) ) ;
#177 = CYLINDRICAL_SURFACE ( 'NONE', #49, 5.000000000000000888 ) ;
#178 = SECURITY_CLASSIFICATION ( '', '', #138 ) ;
#179 = AXIS2_PLACEMENT_3D ( 'NONE', #26, #116, #217 ) ;
#180 = CARTESIAN_POINT ( 'NONE',  ( 0.000000000000000000, 0.000000000000000000, 5.200000000000009948 ) ) ;
#181 = EDGE_LOOP ( 'NONE', ( #163, #185, #80, #140 ) ) ;
#182 = VECTOR ( 'NONE', #125, 1000.000000000000000 ) ;
#183 = AXIS2_PLACEMENT_3D ( 'NONE', #227, #292, #269 ) ;
#184 = CIRCLE ( 'NONE', #17, 8.000000000000000000 ) ;
#185 = ORIENTED_EDGE ( 'NONE', *, *, #305, .T. ) ;
#186 = APPROVAL_DATE_TIME ( #187, #68 ) ;
#187 = DATE_AND_TIME ( #89, #143 ) ;
#188 = ADVANCED_FACE ( 'NONE', ( #106 ), #177, .T. ) ;
#189 = ORIENTED_EDGE ( 'NONE', *, *, #31, .F. ) ;
#190 = PERSON_AND_ORGANIZATION_ROLE ( 'design_owner' ) ;
#191 = CARTESIAN_POINT ( 'NONE',  ( 0.000000000000000000, 0.000000000000000000, 5.000000000000000000 ) ) ;
#192 = DIRECTION ( 'NONE',  ( 0.000000000000000000, 0.000000000000000000, 1.000000000000000000 ) ) ;
#193 = APPLICATION_CONTEXT ( 'configuration controlled 3d designs of mechanical parts and assemblies' ) ;
#194 = DIRECTION ( 'NONE',  ( 1.000000000000000000, 0.000000000000000000, 0.000000000000000000 ) ) ;
#195 = EDGE_LOOP ( 'NONE', ( #154, #73, #54, #243 ) ) ;
#196 = AXIS2_PLACEMENT_3D ( 'NONE', #55, #11, #36 ) ;
#197 = DIRECTION ( 'NONE',  ( 1.000000000000000000, 0.000000000000000000, 0.000000000000000000 ) ) ;
#198 = ORIENTED_EDGE ( 'NONE', *, *, #305, .F. ) ;
#199 = DIRECTION ( 'NONE',  ( -0.000000000000000000, -0.000000000000000000, -1.000000000000000000 ) ) ;
#200 = EDGE_LOOP ( 'NONE', ( #94, #4 ) ) ;
#201 =( NAMED_UNIT ( * ) PLANE_ANGLE_UNIT ( ) SI_UNIT ( $, .RADIAN. ) );
#202 = FACE_OUTER_BOUND ( 'NONE', #225, .T. ) ;
#203 = UNCERTAINTY_MEASURE_WITH_UNIT (LENGTH_MEASURE( 1.000000000000000082E-05 ), #105, 'distance_accuracy_value', 'NONE');
#204 = ORIENTED_EDGE ( 'NONE', *, *, #234, .F. ) ;
#205 = VECTOR ( 'NONE', #156, 1000.000000000000000 ) ;
#206 = CC_DESIGN_PERSON_AND_ORGANIZATION_ASSIGNMENT ( #253, #40, ( #37 ) ) ;
#207 = CARTESIAN_POINT ( 'NONE',  ( -5.000000000000000888, 0.000000000000000000, 205.0000000000000284 ) ) ;
#208 = COORDINATED_UNIVERSAL_TIME_OFFSET ( 1, 0, .AHEAD. ) ;
#209 = CALENDAR_DATE ( 2022, 7, 7 ) ;
#210 = EDGE_CURVE ( 'NONE', #62, #134, #295, .T. ) ;
#211 = AXIS2_PLACEMENT_3D ( 'NONE', #104, #130, #246 ) ;
#212 = COORDINATED_UNIVERSAL_TIME_OFFSET ( 1, 0, .AHEAD. ) ;
#213 = AXIS2_PLACEMENT_3D ( 'NONE', #22, #48, #96 ) ;
#214 = CARTESIAN_POINT ( 'NONE',  ( 0.000000000000000000, 0.000000000000000000, 0.000000000000000000 ) ) ;
#215 = PERSON_AND_ORGANIZATION_ROLE ( 'classification_officer' ) ;
#216 = LINE ( 'NONE', #141, #287 ) ;
#217 = DIRECTION ( 'NONE',  ( 0.000000000000000000, 0.000000000000000000, -1.000000000000000000 ) ) ;
#218 = CIRCLE ( 'NONE', #248, 5.200000000000001066 ) ;
#219 = AXIS2_PLACEMENT_3D ( 'NONE', #307, #288, #194 ) ;
#220 = EDGE_LOOP ( 'NONE', ( #204, #158, #286, #242 ) ) ;
#221 = FACE_OUTER_BOUND ( 'NONE', #14, .T. ) ;
#222 = MANIFOLD_SOLID_BREP ( 'Zaoblit1', #270 ) ;
#223 = ADVANCED_FACE ( 'NONE', ( #32 ), #149, .T. ) ;
#224 = CARTESIAN_POINT ( 'NONE',  ( 0.000000000000000000, 0.000000000000000000, 5.200000000000009948 ) ) ;
#225 = EDGE_LOOP ( 'NONE', ( #131, #189, #92, #79 ) ) ;
#226 = LINE ( 'NONE', #174, #182 ) ;
#227 = CARTESIAN_POINT ( 'NONE',  ( 0.000000000000000000, 0.000000000000000000, 205.0000000000000284 ) ) ;
#228 = DIRECTION ( 'NONE',  ( 1.000000000000000000, 0.000000000000000000, -0.000000000000000000 ) ) ;
#229 = DESIGN_CONTEXT ( 'detailed design', #173, 'design' ) ;
#230 = ADVANCED_FACE ( 'NONE', ( #34 ), #293, .F. ) ;
#231 = CIRCLE ( 'NONE', #261, 0.1999999999999996503 ) ;
#232 = AXIS2_PLACEMENT_3D ( 'NONE', #306, #257, #114 ) ;
#233 = PERSON_AND_ORGANIZATION ( #159, #87 ) ;
#234 = EDGE_CURVE ( 'NONE', #56, #62, #231, .T. ) ;
#235 = APPROVAL_ROLE ( '' ) ;
#236 = CYLINDRICAL_SURFACE ( 'NONE', #213, 8.000000000000000000 ) ;
#237 = LOCAL_TIME ( 11, 54, 45.00000000000000000, #208 ) ;
#238 = DATE_AND_TIME ( #88, #135 ) ;
#239 = CARTESIAN_POINT ( 'NONE',  ( 8.000000000000000000, 9.797174393178825657E-16, 0.000000000000000000 ) ) ;
#240 = ORIENTED_EDGE ( 'NONE', *, *, #210, .T. ) ;
#241 = EDGE_CURVE ( 'NONE', #265, #298, #226, .T. ) ;
#242 = ORIENTED_EDGE ( 'NONE', *, *, #210, .F. ) ;
#243 = ORIENTED_EDGE ( 'NONE', *, *, #115, .F. ) ;
#244 = FACE_OUTER_BOUND ( 'NONE', #181, .T. ) ;
#245 = EDGE_CURVE ( 'NONE', #260, #56, #303, .T. ) ;
#246 = DIRECTION ( 'NONE',  ( 1.000000000000000000, 0.000000000000000000, 0.000000000000000000 ) ) ;
#247 = LINE ( 'NONE', #207, #205 ) ;
#248 = AXIS2_PLACEMENT_3D ( 'NONE', #271, #5, #197 ) ;
#249 = DIRECTION ( 'NONE',  ( 1.224646799147353207E-16, 1.000000000000000000, -0.000000000000000000 ) ) ;
#250 = ORIENTED_EDGE ( 'NONE', *, *, #241, .T. ) ;
#251 = DIRECTION ( 'NONE',  ( 1.000000000000000000, 0.000000000000000000, -0.000000000000000000 ) ) ;
#252 = VERTEX_POINT ( 'NONE', #30 ) ;
#253 = PERSON_AND_ORGANIZATION ( #159, #87 ) ;
#254 = APPROVAL ( #25, 'NEURÈENÝ' ) ;
#255 = COORDINATED_UNIVERSAL_TIME_OFFSET ( 1, 0, .AHEAD. ) ;
#256 = APPROVAL_STATUS ( 'not_yet_approved' ) ;
#257 = DIRECTION ( 'NONE',  ( 0.000000000000000000, 0.000000000000000000, 1.000000000000000000 ) ) ;
#258 = CALENDAR_DATE ( 2022, 7, 7 ) ;
#259 = CARTESIAN_POINT ( 'NONE',  ( 8.000000000000000000, 9.797174393178825657E-16, 5.000000000000000000 ) ) ;
#260 = VERTEX_POINT ( 'NONE', #61 ) ;
#261 = AXIS2_PLACEMENT_3D ( 'NONE', #108, #249, #35 ) ;
#262 = APPLICATION_PROTOCOL_DEFINITION ( 'international standard', 'config_control_design', 1994, #173 ) ;
#263 = ADVANCED_FACE ( 'NONE', ( #7 ), #279, .F. ) ;
#264 = DIRECTION ( 'NONE',  ( 1.000000000000000000, 0.000000000000000000, 0.000000000000000000 ) ) ;
#265 = VERTEX_POINT ( 'NONE', #123 ) ;
#266 = CARTESIAN_POINT ( 'NONE',  ( -5.200000000000001066, 6.368163355566237368E-16, 5.000000000000005329 ) ) ;
#267 = VECTOR ( 'NONE', #199, 1000.000000000000000 ) ;
#268 = DIRECTION ( 'NONE',  ( -1.000000000000000000, 0.000000000000000000, 0.000000000000000000 ) ) ;
#269 = DIRECTION ( 'NONE',  ( -1.000000000000000000, 0.000000000000000000, 0.000000000000000000 ) ) ;
#270 = CLOSED_SHELL ( 'NONE', ( #263, #188, #12, #70, #97, #230, #297, #223, #148 ) ) ;
#271 = CARTESIAN_POINT ( 'NONE',  ( 0.000000000000000000, 0.000000000000000000, 5.000000000000000000 ) ) ;
#272 = PRODUCT ( 'e4e2', 'e4e2', '', ( #166 ) ) ;
#273 = APPROVAL_PERSON_ORGANIZATION ( #164, #8, #69 ) ;
#274 = EDGE_CURVE ( 'NONE', #134, #62, #218, .T. ) ;
#275 = CARTESIAN_POINT ( 'NONE',  ( 0.000000000000000000, 0.000000000000000000, 205.0000000000000284 ) ) ;
#276 = DIRECTION ( 'NONE',  ( 0.000000000000000000, 0.000000000000000000, 1.000000000000000000 ) ) ;
#277 = ORIENTED_EDGE ( 'NONE', *, *, #77, .T. ) ;
#278 = CC_DESIGN_PERSON_AND_ORGANIZATION_ASSIGNMENT ( #20, #215, ( #178 ) ) ;
#279 = TOROIDAL_SURFACE ( 'NONE', #6, 5.200000000000001066, 0.2000000000000000111 ) ;
#280 = PERSON_AND_ORGANIZATION ( #159, #87 ) ;
#281 = PERSON_AND_ORGANIZATION_ROLE ( 'creator' ) ;
#282 = PERSON_AND_ORGANIZATION ( #159, #87 ) ;
#283 = DIRECTION ( 'NONE',  ( 0.000000000000000000, 0.000000000000000000, 1.000000000000000000 ) ) ;
#284 = ADVANCED_BREP_SHAPE_REPRESENTATION ( 'e4e2', ( #222, #83 ), #126 ) ;
#285 = CC_DESIGN_PERSON_AND_ORGANIZATION_ASSIGNMENT ( #233, #160, ( #37 ) ) ;
#286 = ORIENTED_EDGE ( 'NONE', *, *, #115, .T. ) ;
#287 = VECTOR ( 'NONE', #100, 1000.000000000000000 ) ;
#288 = DIRECTION ( 'NONE',  ( 0.000000000000000000, 0.000000000000000000, 1.000000000000000000 ) ) ;
#289 = PRODUCT_RELATED_PRODUCT_CATEGORY ( 'detail', '', ( #272 ) ) ;
#290 = FACE_OUTER_BOUND ( 'NONE', #220, .T. ) ;
#291 = ORIENTED_EDGE ( 'NONE', *, *, #133, .T. ) ;
#292 = DIRECTION ( 'NONE',  ( -0.000000000000000000, -0.000000000000000000, -1.000000000000000000 ) ) ;
#293 = PLANE ( 'NONE',  #75 ) ;
#294 = CC_DESIGN_DATE_AND_TIME_ASSIGNMENT ( #93, #301, ( #178 ) ) ;
#295 = CIRCLE ( 'NONE', #196, 5.200000000000001066 ) ;
#296 = DIRECTION ( 'NONE',  ( 1.000000000000000000, 0.000000000000000000, 0.000000000000000000 ) ) ;
#297 = ADVANCED_FACE ( 'NONE', ( #202 ), #102, .T. ) ;
#298 = VERTEX_POINT ( 'NONE', #155 ) ;
#299 = CC_DESIGN_SECURITY_CLASSIFICATION ( #178, ( #37 ) ) ;
#300 = CIRCLE ( 'NONE', #28, 8.000000000000000000 ) ;
#301 = DATE_TIME_ROLE ( 'classification_date' ) ;
#302 = APPROVAL_STATUS ( 'not_yet_approved' ) ;
#303 = CIRCLE ( 'NONE', #211, 5.000000000000000888 ) ;
#304 = CYLINDRICAL_SURFACE ( 'NONE', #128, 8.000000000000000000 ) ;
#305 = EDGE_CURVE ( 'NONE', #19, #24, #86, .T. ) ;
#306 = CARTESIAN_POINT ( 'NONE',  ( 0.000000000000000000, 0.000000000000000000, 205.0000000000000284 ) ) ;
#307 = CARTESIAN_POINT ( 'NONE',  ( 0.000000000000000000, 0.000000000000000000, 5.200000000000009948 ) ) ;
ENDSEC;
END-ISO-10303-21;
