ISO-10303-21;
HEADER;
FILE_DESCRIPTION (( 'STEP AP203' ),
    '1' );
FILE_NAME ('4284.STEP',
    '2022-07-07T10:20:46',
    ( '' ),
    ( '' ),
    'SwSTEP 2.0',
    'SolidWorks 2019',
    '' );
FILE_SCHEMA (( 'CONFIG_CONTROL_DESIGN' ));
ENDSEC;

DATA;
#1 = AXIS2_PLACEMENT_3D ( 'NONE', #179, #154, #250 ) ;
#2 = FACE_OUTER_BOUND ( 'NONE', #171, .T. ) ;
#3 = EDGE_CURVE ( 'NONE', #54, #192, #282, .T. ) ;
#4 = DIRECTION ( 'NONE',  ( 1.000000000000000000, 0.000000000000000000, 0.000000000000000000 ) ) ;
#5 = ORIENTED_EDGE ( 'NONE', *, *, #66, .F. ) ;
#6 = CARTESIAN_POINT ( 'NONE',  ( 0.000000000000000000, 0.000000000000000000, 3.199999999999980638 ) ) ;
#7 = DIRECTION ( 'NONE',  ( 0.000000000000000000, -1.000000000000000000, 0.000000000000000000 ) ) ;
#8 = AXIS2_PLACEMENT_3D ( 'NONE', #17, #223, #180 ) ;
#9 = CARTESIAN_POINT ( 'NONE',  ( 2.449999999999999734, 0.000000000000000000, 3.199999999999980638 ) ) ;
#10 = CARTESIAN_POINT ( 'NONE',  ( 0.000000000000000000, 0.000000000000000000, 3.000000000000000000 ) ) ;
#11 = EDGE_CURVE ( 'NONE', #121, #54, #32, .T. ) ;
#12 = EDGE_LOOP ( 'NONE', ( #268, #5 ) ) ;
#13 = CIRCLE ( 'NONE', #145, 0.2000000000000000944 ) ;
#14 = EDGE_CURVE ( 'NONE', #116, #192, #13, .T. ) ;
#15 = APPROVAL_STATUS ( 'not_yet_approved' ) ;
#16 = LINE ( 'NONE', #18, #209 ) ;
#17 = CARTESIAN_POINT ( 'NONE',  ( 0.000000000000000000, 0.000000000000000000, 3.199999999999980638 ) ) ;
#18 = CARTESIAN_POINT ( 'NONE',  ( -4.000000000000000000, 0.000000000000000000, 3.000000000000000000 ) ) ;
#19 = ORIENTED_EDGE ( 'NONE', *, *, #273, .F. ) ;
#20 = ORIENTED_EDGE ( 'NONE', *, *, #95, .F. ) ;
#21 = AXIS2_PLACEMENT_3D ( 'NONE', #258, #23, #4 ) ;
#22 = DIRECTION ( 'NONE',  ( -1.000000000000000000, 0.000000000000000000, 0.000000000000000000 ) ) ;
#23 = DIRECTION ( 'NONE',  ( 0.000000000000000000, 0.000000000000000000, 1.000000000000000000 ) ) ;
#24 = DIRECTION ( 'NONE',  ( 0.000000000000000000, 0.000000000000000000, 1.000000000000000000 ) ) ;
#25 = CARTESIAN_POINT ( 'NONE',  ( 4.000000000000000000, 4.898587196589412829E-16, 3.000000000000000000 ) ) ;
#26 = DIRECTION ( 'NONE',  ( 1.224646799147353207E-16, 1.000000000000000000, -0.000000000000000000 ) ) ;
#27 = FACE_OUTER_BOUND ( 'NONE', #201, .T. ) ;
#28 = DIRECTION ( 'NONE',  ( -0.000000000000000000, -0.000000000000000000, -1.000000000000000000 ) ) ;
#29 = CC_DESIGN_DATE_AND_TIME_ASSIGNMENT ( #202, #57, ( #191 ) ) ;
#30 = CARTESIAN_POINT ( 'NONE',  ( 0.000000000000000000, 0.000000000000000000, 3.000000000000000000 ) ) ;
#31 = PERSON_AND_ORGANIZATION ( #162, #146 ) ;
#32 = CIRCLE ( 'NONE', #112, 0.2000000000000000944 ) ;
#33 = CC_DESIGN_APPROVAL ( #131, ( #191 ) ) ;
#34 = ADVANCED_BREP_SHAPE_REPRESENTATION ( '4284', ( #59, #1 ), #303 ) ;
#35 =( NAMED_UNIT ( * ) SI_UNIT ( $, .STERADIAN. ) SOLID_ANGLE_UNIT ( ) );
#36 = MECHANICAL_CONTEXT ( 'NONE', #141, 'mechanical' ) ;
#37 = CC_DESIGN_SECURITY_CLASSIFICATION ( #176, ( #58 ) ) ;
#38 = EDGE_LOOP ( 'NONE', ( #177, #299, #53, #76 ) ) ;
#39 = APPROVAL_DATE_TIME ( #206, #226 ) ;
#40 = EDGE_LOOP ( 'NONE', ( #218, #42, #63, #293 ) ) ;
#41 = PERSON_AND_ORGANIZATION_ROLE ( 'design_supplier' ) ;
#42 = ORIENTED_EDGE ( 'NONE', *, *, #80, .F. ) ;
#43 = CARTESIAN_POINT ( 'NONE',  ( -4.000000000000000000, 0.000000000000000000, 3.000000000000000000 ) ) ;
#44 = SECURITY_CLASSIFICATION_LEVEL ( 'unclassified' ) ;
#45 = FACE_OUTER_BOUND ( 'NONE', #101, .T. ) ;
#46 = CARTESIAN_POINT ( 'NONE',  ( 0.000000000000000000, 0.000000000000000000, 3.000000000000000000 ) ) ;
#47 = CIRCLE ( 'NONE', #230, 4.000000000000000000 ) ;
#48 = LOCAL_TIME ( 12, 20, 46.00000000000000000, #178 ) ;
#49 = EDGE_CURVE ( 'NONE', #56, #142, #47, .T. ) ;
#50 = DIRECTION ( 'NONE',  ( 1.000000000000000000, 0.000000000000000000, 0.000000000000000000 ) ) ;
#51 = CARTESIAN_POINT ( 'NONE',  ( -2.449999999999999734, 3.000384657911015370E-16, 3.199999999999980638 ) ) ;
#52 = DIRECTION ( 'NONE',  ( 1.000000000000000000, 0.000000000000000000, -0.000000000000000000 ) ) ;
#53 = ORIENTED_EDGE ( 'NONE', *, *, #248, .F. ) ;
#54 = VERTEX_POINT ( 'NONE', #195 ) ;
#55 = AXIS2_PLACEMENT_3D ( 'NONE', #134, #190, #22 ) ;
#56 = VERTEX_POINT ( 'NONE', #219 ) ;
#57 = DATE_TIME_ROLE ( 'creation_date' ) ;
#58 = PRODUCT_DEFINITION_FORMATION_WITH_SPECIFIED_SOURCE ( 'LIBOVOLNÝ', '', #265, .NOT_KNOWN. ) ;
#59 = MANIFOLD_SOLID_BREP ( 'Zaoblit1', #119 ) ;
#60 = CARTESIAN_POINT ( 'NONE',  ( 0.000000000000000000, 0.000000000000000000, 0.000000000000000000 ) ) ;
#61 = EDGE_CURVE ( 'NONE', #64, #159, #220, .T. ) ;
#62 = CALENDAR_DATE ( 2022, 7, 7 ) ;
#63 = ORIENTED_EDGE ( 'NONE', *, *, #14, .T. ) ;
#64 = VERTEX_POINT ( 'NONE', #73 ) ;
#65 = COORDINATED_UNIVERSAL_TIME_OFFSET ( 1, 0, .AHEAD. ) ;
#66 = EDGE_CURVE ( 'NONE', #238, #86, #153, .T. ) ;
#67 = FACE_OUTER_BOUND ( 'NONE', #12, .T. ) ;
#68 = DIRECTION ( 'NONE',  ( 1.000000000000000000, 0.000000000000000000, -0.000000000000000000 ) ) ;
#69 = ADVANCED_FACE ( 'NONE', ( #27 ), #120, .T. ) ;
#70 = FACE_OUTER_BOUND ( 'NONE', #40, .T. ) ;
#71 = ORIENTED_EDGE ( 'NONE', *, *, #294, .T. ) ;
#72 = DIRECTION ( 'NONE',  ( -0.000000000000000000, -0.000000000000000000, -1.000000000000000000 ) ) ;
#73 = CARTESIAN_POINT ( 'NONE',  ( -2.250000000000000000, 0.000000000000000000, 1002.999999999999886 ) ) ;
#74 = UNCERTAINTY_MEASURE_WITH_UNIT (LENGTH_MEASURE( 1.000000000000000082E-05 ), #155, 'distance_accuracy_value', 'NONE');
#75 = ORIENTED_EDGE ( 'NONE', *, *, #66, .T. ) ;
#76 = ORIENTED_EDGE ( 'NONE', *, *, #14, .F. ) ;
#77 = LOCAL_TIME ( 12, 20, 46.00000000000000000, #227 ) ;
#78 = APPROVAL_ROLE ( '' ) ;
#79 = DIRECTION ( 'NONE',  ( 0.000000000000000000, 0.000000000000000000, 1.000000000000000000 ) ) ;
#80 = EDGE_CURVE ( 'NONE', #116, #121, #128, .T. ) ;
#81 = PERSON_AND_ORGANIZATION_ROLE ( 'design_owner' ) ;
#82 = APPLICATION_CONTEXT ( 'configuration controlled 3d designs of mechanical parts and assemblies' ) ;
#83 = CC_DESIGN_PERSON_AND_ORGANIZATION_ASSIGNMENT ( #253, #41, ( #58 ) ) ;
#84 = CC_DESIGN_PERSON_AND_ORGANIZATION_ASSIGNMENT ( #31, #272, ( #191 ) ) ;
#85 = CALENDAR_DATE ( 2022, 7, 7 ) ;
#86 = VERTEX_POINT ( 'NONE', #266 ) ;
#87 = ADVANCED_FACE ( 'NONE', ( #67 ), #115, .F. ) ;
#88 = DATE_TIME_ROLE ( 'classification_date' ) ;
#89 = DATE_AND_TIME ( #165, #242 ) ;
#90 = DIRECTION ( 'NONE',  ( 0.000000000000000000, 0.000000000000000000, 1.000000000000000000 ) ) ;
#91 = VECTOR ( 'NONE', #221, 1000.000000000000000 ) ;
#92 = CARTESIAN_POINT ( 'NONE',  ( -2.250000000000000000, 0.000000000000000000, 3.199999999999980638 ) ) ;
#93 = PLANE ( 'NONE',  #224 ) ;
#94 = ORIENTED_EDGE ( 'NONE', *, *, #273, .T. ) ;
#95 = EDGE_CURVE ( 'NONE', #142, #56, #163, .T. ) ;
#96 = CARTESIAN_POINT ( 'NONE',  ( 0.000000000000000000, 0.000000000000000000, 1002.999999999999886 ) ) ;
#97 = AXIS2_PLACEMENT_3D ( 'NONE', #197, #90, #194 ) ;
#98 = AXIS2_PLACEMENT_3D ( 'NONE', #148, #28, #102 ) ;
#99 = AXIS2_PLACEMENT_3D ( 'NONE', #172, #143, #225 ) ;
#100 = DIRECTION ( 'NONE',  ( 0.000000000000000000, 0.000000000000000000, 1.000000000000000000 ) ) ;
#101 = EDGE_LOOP ( 'NONE', ( #149, #20, #300, #243 ) ) ;
#102 = DIRECTION ( 'NONE',  ( -1.000000000000000000, 0.000000000000000000, 0.000000000000000000 ) ) ;
#103 = ORIENTED_EDGE ( 'NONE', *, *, #132, .T. ) ;
#104 = AXIS2_PLACEMENT_3D ( 'NONE', #207, #285, #139 ) ;
#105 = APPROVAL_ROLE ( '' ) ;
#106 = PERSON_AND_ORGANIZATION ( #162, #146 ) ;
#107 = APPROVAL_PERSON_ORGANIZATION ( #306, #150, #305 ) ;
#108 = EDGE_LOOP ( 'NONE', ( #110, #213 ) ) ;
#109 = ADVANCED_FACE ( 'NONE', ( #260 ), #189, .T. ) ;
#110 = ORIENTED_EDGE ( 'NONE', *, *, #61, .T. ) ;
#111 = CYLINDRICAL_SURFACE ( 'NONE', #104, 2.250000000000000000 ) ;
#112 = AXIS2_PLACEMENT_3D ( 'NONE', #51, #26, #118 ) ;
#113 = DIRECTION ( 'NONE',  ( 0.000000000000000000, 0.000000000000000000, 1.000000000000000000 ) ) ;
#114 = TOROIDAL_SURFACE ( 'NONE', #8, 2.449999999999999734, 0.2000000000000000111 ) ;
#115 = PLANE ( 'NONE',  #208 ) ;
#116 = VERTEX_POINT ( 'NONE', #214 ) ;
#117 = DIRECTION ( 'NONE',  ( 1.000000000000000000, 0.000000000000000000, -0.000000000000000000 ) ) ;
#118 = DIRECTION ( 'NONE',  ( -1.000000000000000000, 1.224646799147353207E-16, 0.000000000000000000 ) ) ;
#119 = CLOSED_SHELL ( 'NONE', ( #297, #152, #69, #138, #173, #87, #204, #109, #212 ) ) ;
#120 = CYLINDRICAL_SURFACE ( 'NONE', #98, 4.000000000000000000 ) ;
#121 = VERTEX_POINT ( 'NONE', #92 ) ;
#122 = DIRECTION ( 'NONE',  ( 1.000000000000000000, 0.000000000000000000, 0.000000000000000000 ) ) ;
#123 = PERSON_AND_ORGANIZATION ( #162, #146 ) ;
#124 = CIRCLE ( 'NONE', #275, 2.250000000000000000 ) ;
#125 = DESIGN_CONTEXT ( 'detailed design', #82, 'design' ) ;
#126 = APPLICATION_PROTOCOL_DEFINITION ( 'international standard', 'config_control_design', 1994, #141 ) ;
#127 = PERSON_AND_ORGANIZATION ( #162, #146 ) ;
#128 = CIRCLE ( 'NONE', #97, 2.250000000000000000 ) ;
#129 = CIRCLE ( 'NONE', #188, 2.250000000000000000 ) ;
#130 = DIRECTION ( 'NONE',  ( 1.000000000000000000, 0.000000000000000000, 0.000000000000000000 ) ) ;
#131 = APPROVAL ( #298, 'NEURÈENÝ' ) ;
#132 = EDGE_CURVE ( 'NONE', #121, #116, #129, .T. ) ;
#133 = EDGE_LOOP ( 'NONE', ( #19, #264, #71, #103 ) ) ;
#134 = CARTESIAN_POINT ( 'NONE',  ( 0.000000000000000000, 0.000000000000000000, 1002.999999999999886 ) ) ;
#135 = COORDINATED_UNIVERSAL_TIME_OFFSET ( 1, 0, .AHEAD. ) ;
#136 = CYLINDRICAL_SURFACE ( 'NONE', #55, 2.250000000000000000 ) ;
#137 = PRODUCT_DEFINITION_SHAPE ( 'NONE', 'NONE',  #191 ) ;
#138 = ADVANCED_FACE ( 'NONE', ( #45 ), #283, .T. ) ;
#139 = DIRECTION ( 'NONE',  ( -1.000000000000000000, 0.000000000000000000, 0.000000000000000000 ) ) ;
#140 = DIRECTION ( 'NONE',  ( 0.000000000000000000, 0.000000000000000000, 1.000000000000000000 ) ) ;
#141 = APPLICATION_CONTEXT ( 'configuration controlled 3d designs of mechanical parts and assemblies' ) ;
#142 = VERTEX_POINT ( 'NONE', #43 ) ;
#143 = DIRECTION ( 'NONE',  ( -0.000000000000000000, -0.000000000000000000, -1.000000000000000000 ) ) ;
#144 = DIRECTION ( 'NONE',  ( 0.000000000000000000, 0.000000000000000000, -1.000000000000000000 ) ) ;
#145 = AXIS2_PLACEMENT_3D ( 'NONE', #9, #7, #144 ) ;
#146 = ORGANIZATION ( 'NEURÈENÝ', 'NEURÈENÝ', '' ) ;
#147 = CC_DESIGN_DATE_AND_TIME_ASSIGNMENT ( #89, #88, ( #176 ) ) ;
#148 = CARTESIAN_POINT ( 'NONE',  ( 0.000000000000000000, 0.000000000000000000, 3.000000000000000000 ) ) ;
#149 = ORIENTED_EDGE ( 'NONE', *, *, #222, .F. ) ;
#150 = APPROVAL ( #231, 'NEURÈENÝ' ) ;
#151 = FACE_OUTER_BOUND ( 'NONE', #38, .T. ) ;
#152 = ADVANCED_FACE ( 'NONE', ( #236 ), #136, .T. ) ;
#153 = CIRCLE ( 'NONE', #193, 4.000000000000000000 ) ;
#154 = DIRECTION ( 'NONE',  ( 0.000000000000000000, 0.000000000000000000, 1.000000000000000000 ) ) ;
#155 =( LENGTH_UNIT ( ) NAMED_UNIT ( * ) SI_UNIT ( .MILLI., .METRE. ) );
#156 = LINE ( 'NONE', #199, #91 ) ;
#157 = LINE ( 'NONE', #251, #279 ) ;
#158 = TOROIDAL_SURFACE ( 'NONE', #216, 2.449999999999999734, 0.2000000000000000111 ) ;
#159 = VERTEX_POINT ( 'NONE', #289 ) ;
#160 = ORIENTED_EDGE ( 'NONE', *, *, #80, .T. ) ;
#161 = PERSON_AND_ORGANIZATION_ROLE ( 'creator' ) ;
#162 = PERSON ( 'NEURÈENÝ', 'NEURÈENÝ', 'NEURÈENÝ', ('NEURÈENÝ'), ('NEURÈENÝ'), ('NEURÈENÝ') ) ;
#163 = CIRCLE ( 'NONE', #21, 4.000000000000000000 ) ;
#164 = AXIS2_PLACEMENT_3D ( 'NONE', #60, #79, #130 ) ;
#165 = CALENDAR_DATE ( 2022, 7, 7 ) ;
#166 = CARTESIAN_POINT ( 'NONE',  ( 0.000000000000000000, 0.000000000000000000, 0.000000000000000000 ) ) ;
#167 = CARTESIAN_POINT ( 'NONE',  ( 2.449999999999999734, 0.000000000000000000, 2.999999999999990674 ) ) ;
#168 = CARTESIAN_POINT ( 'NONE',  ( 0.000000000000000000, 0.000000000000000000, 3.199999999999980638 ) ) ;
#169 = AXIS2_PLACEMENT_3D ( 'NONE', #46, #210, #261 ) ;
#170 = CIRCLE ( 'NONE', #164, 4.000000000000000000 ) ;
#171 = EDGE_LOOP ( 'NONE', ( #292, #252 ) ) ;
#172 = CARTESIAN_POINT ( 'NONE',  ( 0.000000000000000000, 0.000000000000000000, 3.000000000000000000 ) ) ;
#173 = ADVANCED_FACE ( 'NONE', ( #234, #2 ), #93, .T. ) ;
#174 = CARTESIAN_POINT ( 'NONE',  ( 0.000000000000000000, 0.000000000000000000, 0.000000000000000000 ) ) ;
#175 = DIRECTION ( 'NONE',  ( 0.000000000000000000, 0.000000000000000000, 1.000000000000000000 ) ) ;
#176 = SECURITY_CLASSIFICATION ( '', '', #44 ) ;
#177 = ORIENTED_EDGE ( 'NONE', *, *, #132, .F. ) ;
#178 = COORDINATED_UNIVERSAL_TIME_OFFSET ( 1, 0, .AHEAD. ) ;
#179 = CARTESIAN_POINT ( 'NONE',  ( 0.000000000000000000, 0.000000000000000000, 0.000000000000000000 ) ) ;
#180 = DIRECTION ( 'NONE',  ( 1.000000000000000000, 0.000000000000000000, 0.000000000000000000 ) ) ;
#181 = DATE_AND_TIME ( #85, #48 ) ;
#182 = ORIENTED_EDGE ( 'NONE', *, *, #294, .F. ) ;
#183 = APPROVAL_PERSON_ORGANIZATION ( #127, #131, #78 ) ;
#184 = SHAPE_DEFINITION_REPRESENTATION ( #137, #34 ) ;
#185 = COORDINATED_UNIVERSAL_TIME_OFFSET ( 1, 0, .AHEAD. ) ;
#186 = CALENDAR_DATE ( 2022, 7, 7 ) ;
#187 = AXIS2_PLACEMENT_3D ( 'NONE', #10, #244, #270 ) ;
#188 = AXIS2_PLACEMENT_3D ( 'NONE', #6, #113, #211 ) ;
#189 = PLANE ( 'NONE',  #198 ) ;
#190 = DIRECTION ( 'NONE',  ( -0.000000000000000000, -0.000000000000000000, -1.000000000000000000 ) ) ;
#191 = PRODUCT_DEFINITION ( 'NEZNÁMÝ', '', #58, #125 ) ;
#192 = VERTEX_POINT ( 'NONE', #167 ) ;
#193 = AXIS2_PLACEMENT_3D ( 'NONE', #174, #267, #241 ) ;
#194 = DIRECTION ( 'NONE',  ( 1.000000000000000000, 0.000000000000000000, 0.000000000000000000 ) ) ;
#195 = CARTESIAN_POINT ( 'NONE',  ( -2.449999999999999734, 3.000384657911015370E-16, 2.999999999999990674 ) ) ;
#196 = CARTESIAN_POINT ( 'NONE',  ( 0.000000000000000000, 0.000000000000000000, 1002.999999999999886 ) ) ;
#197 = CARTESIAN_POINT ( 'NONE',  ( 0.000000000000000000, 0.000000000000000000, 3.199999999999980638 ) ) ;
#198 = AXIS2_PLACEMENT_3D ( 'NONE', #96, #24, #52 ) ;
#199 = CARTESIAN_POINT ( 'NONE',  ( 2.250000000000000000, 2.755455298081544285E-16, 1002.999999999999886 ) ) ;
#200 = APPLICATION_PROTOCOL_DEFINITION ( 'international standard', 'config_control_design', 1994, #82 ) ;
#201 = EDGE_LOOP ( 'NONE', ( #257, #228, #75, #215 ) ) ;
#202 = DATE_AND_TIME ( #62, #77 ) ;
#203 = ORIENTED_EDGE ( 'NONE', *, *, #3, .T. ) ;
#204 = ADVANCED_FACE ( 'NONE', ( #239 ), #111, .T. ) ;
#205 = LOCAL_TIME ( 12, 20, 46.00000000000000000, #65 ) ;
#206 = DATE_AND_TIME ( #229, #235 ) ;
#207 = CARTESIAN_POINT ( 'NONE',  ( 0.000000000000000000, 0.000000000000000000, 1002.999999999999886 ) ) ;
#208 = AXIS2_PLACEMENT_3D ( 'NONE', #166, #232, #117 ) ;
#209 = VECTOR ( 'NONE', #295, 1000.000000000000000 ) ;
#210 = DIRECTION ( 'NONE',  ( -0.000000000000000000, -0.000000000000000000, -1.000000000000000000 ) ) ;
#211 = DIRECTION ( 'NONE',  ( 1.000000000000000000, 0.000000000000000000, 0.000000000000000000 ) ) ;
#212 = ADVANCED_FACE ( 'NONE', ( #70 ), #158, .F. ) ;
#213 = ORIENTED_EDGE ( 'NONE', *, *, #271, .T. ) ;
#214 = CARTESIAN_POINT ( 'NONE',  ( 2.250000000000000000, 2.755455298081544285E-16, 3.199999999999980638 ) ) ;
#215 = ORIENTED_EDGE ( 'NONE', *, *, #291, .F. ) ;
#216 = AXIS2_PLACEMENT_3D ( 'NONE', #168, #263, #50 ) ;
#217 = ORIENTED_EDGE ( 'NONE', *, *, #248, .T. ) ;
#218 = ORIENTED_EDGE ( 'NONE', *, *, #11, .F. ) ;
#219 = CARTESIAN_POINT ( 'NONE',  ( 4.000000000000000000, 4.898587196589412829E-16, 3.000000000000000000 ) ) ;
#220 = CIRCLE ( 'NONE', #247, 2.250000000000000000 ) ;
#221 = DIRECTION ( 'NONE',  ( -0.000000000000000000, -0.000000000000000000, -1.000000000000000000 ) ) ;
#222 = EDGE_CURVE ( 'NONE', #56, #238, #237, .T. ) ;
#223 = DIRECTION ( 'NONE',  ( 0.000000000000000000, 0.000000000000000000, 1.000000000000000000 ) ) ;
#224 = AXIS2_PLACEMENT_3D ( 'NONE', #284, #140, #68 ) ;
#225 = DIRECTION ( 'NONE',  ( 1.000000000000000000, 0.000000000000000000, 0.000000000000000000 ) ) ;
#226 = APPROVAL ( #15, 'NEURÈENÝ' ) ;
#227 = COORDINATED_UNIVERSAL_TIME_OFFSET ( 1, 0, .AHEAD. ) ;
#228 = ORIENTED_EDGE ( 'NONE', *, *, #222, .T. ) ;
#229 = CALENDAR_DATE ( 2022, 7, 7 ) ;
#230 = AXIS2_PLACEMENT_3D ( 'NONE', #30, #100, #122 ) ;
#231 = APPROVAL_STATUS ( 'not_yet_approved' ) ;
#232 = DIRECTION ( 'NONE',  ( 0.000000000000000000, 0.000000000000000000, 1.000000000000000000 ) ) ;
#233 = PERSON_AND_ORGANIZATION ( #162, #146 ) ;
#234 = FACE_BOUND ( 'NONE', #286, .T. ) ;
#235 = LOCAL_TIME ( 12, 20, 46.00000000000000000, #185 ) ;
#236 = FACE_OUTER_BOUND ( 'NONE', #280, .T. ) ;
#237 = LINE ( 'NONE', #25, #302 ) ;
#238 = VERTEX_POINT ( 'NONE', #307 ) ;
#239 = FACE_OUTER_BOUND ( 'NONE', #133, .T. ) ;
#240 = CC_DESIGN_PERSON_AND_ORGANIZATION_ASSIGNMENT ( #233, #254, ( #176 ) ) ;
#241 = DIRECTION ( 'NONE',  ( 1.000000000000000000, 0.000000000000000000, 0.000000000000000000 ) ) ;
#242 = LOCAL_TIME ( 12, 20, 46.00000000000000000, #135 ) ;
#243 = ORIENTED_EDGE ( 'NONE', *, *, #278, .T. ) ;
#244 = DIRECTION ( 'NONE',  ( -0.000000000000000000, -0.000000000000000000, -1.000000000000000000 ) ) ;
#245 = DIRECTION ( 'NONE',  ( 0.000000000000000000, 0.000000000000000000, 1.000000000000000000 ) ) ;
#246 = PRODUCT_RELATED_PRODUCT_CATEGORY ( 'detail', '', ( #265 ) ) ;
#247 = AXIS2_PLACEMENT_3D ( 'NONE', #196, #175, #290 ) ;
#248 = EDGE_CURVE ( 'NONE', #192, #54, #269, .T. ) ;
#249 =( NAMED_UNIT ( * ) PLANE_ANGLE_UNIT ( ) SI_UNIT ( $, .RADIAN. ) );
#250 = DIRECTION ( 'NONE',  ( 1.000000000000000000, 0.000000000000000000, 0.000000000000000000 ) ) ;
#251 = CARTESIAN_POINT ( 'NONE',  ( -2.250000000000000000, 0.000000000000000000, 1002.999999999999886 ) ) ;
#252 = ORIENTED_EDGE ( 'NONE', *, *, #49, .T. ) ;
#253 = PERSON_AND_ORGANIZATION ( #162, #146 ) ;
#254 = PERSON_AND_ORGANIZATION_ROLE ( 'classification_officer' ) ;
#255 = DATE_AND_TIME ( #186, #205 ) ;
#256 = CC_DESIGN_APPROVAL ( #226, ( #58 ) ) ;
#257 = ORIENTED_EDGE ( 'NONE', *, *, #49, .F. ) ;
#258 = CARTESIAN_POINT ( 'NONE',  ( 0.000000000000000000, 0.000000000000000000, 3.000000000000000000 ) ) ;
#259 = PERSON_AND_ORGANIZATION ( #162, #146 ) ;
#260 = FACE_OUTER_BOUND ( 'NONE', #108, .T. ) ;
#261 = DIRECTION ( 'NONE',  ( -1.000000000000000000, 0.000000000000000000, 0.000000000000000000 ) ) ;
#262 = APPROVAL_PERSON_ORGANIZATION ( #123, #226, #105 ) ;
#263 = DIRECTION ( 'NONE',  ( 0.000000000000000000, 0.000000000000000000, 1.000000000000000000 ) ) ;
#264 = ORIENTED_EDGE ( 'NONE', *, *, #61, .F. ) ;
#265 = PRODUCT ( '4284', '4284', '', ( #36 ) ) ;
#266 = CARTESIAN_POINT ( 'NONE',  ( -4.000000000000000000, 0.000000000000000000, 0.000000000000000000 ) ) ;
#267 = DIRECTION ( 'NONE',  ( 0.000000000000000000, 0.000000000000000000, 1.000000000000000000 ) ) ;
#268 = ORIENTED_EDGE ( 'NONE', *, *, #278, .F. ) ;
#269 = CIRCLE ( 'NONE', #99, 2.449999999999999734 ) ;
#270 = DIRECTION ( 'NONE',  ( 1.000000000000000000, 0.000000000000000000, 0.000000000000000000 ) ) ;
#271 = EDGE_CURVE ( 'NONE', #159, #64, #124, .T. ) ;
#272 = PERSON_AND_ORGANIZATION_ROLE ( 'creator' ) ;
#273 = EDGE_CURVE ( 'NONE', #159, #116, #156, .T. ) ;
#274 = DIRECTION ( 'NONE',  ( 1.000000000000000000, 0.000000000000000000, 0.000000000000000000 ) ) ;
#275 = AXIS2_PLACEMENT_3D ( 'NONE', #276, #245, #274 ) ;
#276 = CARTESIAN_POINT ( 'NONE',  ( 0.000000000000000000, 0.000000000000000000, 1002.999999999999886 ) ) ;
#277 = APPROVAL_DATE_TIME ( #181, #131 ) ;
#278 = EDGE_CURVE ( 'NONE', #86, #238, #170, .T. ) ;
#279 = VECTOR ( 'NONE', #296, 1000.000000000000000 ) ;
#280 = EDGE_LOOP ( 'NONE', ( #304, #94, #160, #182 ) ) ;
#281 = APPROVAL_DATE_TIME ( #255, #150 ) ;
#282 = CIRCLE ( 'NONE', #187, 2.449999999999999734 ) ;
#283 = CYLINDRICAL_SURFACE ( 'NONE', #169, 4.000000000000000000 ) ;
#284 = CARTESIAN_POINT ( 'NONE',  ( 0.000000000000000000, 0.000000000000000000, 3.000000000000000000 ) ) ;
#285 = DIRECTION ( 'NONE',  ( -0.000000000000000000, -0.000000000000000000, -1.000000000000000000 ) ) ;
#286 = EDGE_LOOP ( 'NONE', ( #217, #203 ) ) ;
#287 = CC_DESIGN_PERSON_AND_ORGANIZATION_ASSIGNMENT ( #259, #161, ( #58 ) ) ;
#288 = CC_DESIGN_APPROVAL ( #150, ( #176 ) ) ;
#289 = CARTESIAN_POINT ( 'NONE',  ( 2.250000000000000000, 2.755455298081544285E-16, 1002.999999999999886 ) ) ;
#290 = DIRECTION ( 'NONE',  ( 1.000000000000000000, 0.000000000000000000, 0.000000000000000000 ) ) ;
#291 = EDGE_CURVE ( 'NONE', #142, #86, #16, .T. ) ;
#292 = ORIENTED_EDGE ( 'NONE', *, *, #95, .T. ) ;
#293 = ORIENTED_EDGE ( 'NONE', *, *, #3, .F. ) ;
#294 = EDGE_CURVE ( 'NONE', #64, #121, #157, .T. ) ;
#295 = DIRECTION ( 'NONE',  ( -0.000000000000000000, -0.000000000000000000, -1.000000000000000000 ) ) ;
#296 = DIRECTION ( 'NONE',  ( -0.000000000000000000, -0.000000000000000000, -1.000000000000000000 ) ) ;
#297 = ADVANCED_FACE ( 'NONE', ( #151 ), #114, .F. ) ;
#298 = APPROVAL_STATUS ( 'not_yet_approved' ) ;
#299 = ORIENTED_EDGE ( 'NONE', *, *, #11, .T. ) ;
#300 = ORIENTED_EDGE ( 'NONE', *, *, #291, .T. ) ;
#301 = CC_DESIGN_PERSON_AND_ORGANIZATION_ASSIGNMENT ( #106, #81, ( #265 ) ) ;
#302 = VECTOR ( 'NONE', #72, 1000.000000000000000 ) ;
#303 =( GEOMETRIC_REPRESENTATION_CONTEXT ( 3 ) GLOBAL_UNCERTAINTY_ASSIGNED_CONTEXT ( ( #74 ) ) GLOBAL_UNIT_ASSIGNED_CONTEXT ( ( #155, #249, #35 ) ) REPRESENTATION_CONTEXT ( 'NONE', 'WORKASPACE' ) );
#304 = ORIENTED_EDGE ( 'NONE', *, *, #271, .F. ) ;
#305 = APPROVAL_ROLE ( '' ) ;
#306 = PERSON_AND_ORGANIZATION ( #162, #146 ) ;
#307 = CARTESIAN_POINT ( 'NONE',  ( 4.000000000000000000, 4.898587196589412829E-16, 0.000000000000000000 ) ) ;
ENDSEC;
END-ISO-10303-21;
