ISO-10303-21;
HEADER;
FILE_DESCRIPTION (( 'STEP AP203' ),
    '1' );
FILE_NAME ('bd43.STEP',
    '2023-02-12T12:53:20',
    ( '' ),
    ( '' ),
    'SwSTEP 2.0',
    'SolidWorks 2019',
    '' );
FILE_SCHEMA (( 'CONFIG_CONTROL_DESIGN' ));
ENDSEC;

DATA;
#1 = DIRECTION ( 'NONE',  ( 1.000000000000000000, 0.000000000000000000, 0.000000000000000000 ) ) ;
#2 = PRODUCT_DEFINITION ( 'NEZNÁMÝ', '', #239, #153 ) ;
#3 = CYLINDRICAL_SURFACE ( 'NONE', #54, 2.000000000000000000 ) ;
#4 = PERSON_AND_ORGANIZATION_ROLE ( 'design_owner' ) ;
#5 = LOCAL_TIME ( 13, 53, 20.00000000000000000, #140 ) ;
#6 = CC_DESIGN_PERSON_AND_ORGANIZATION_ASSIGNMENT ( #174, #88, ( #239 ) ) ;
#7 = DIRECTION ( 'NONE',  ( 0.000000000000000000, 0.000000000000000000, 1.000000000000000000 ) ) ;
#8 = DIRECTION ( 'NONE',  ( -0.000000000000000000, -0.000000000000000000, -1.000000000000000000 ) ) ;
#9 = VERTEX_POINT ( 'NONE', #253 ) ;
#10 = CARTESIAN_POINT ( 'NONE',  ( 1.000000000000000000, 1.224646799147353207E-16, 125.0000000000000000 ) ) ;
#11 = ORIENTED_EDGE ( 'NONE', *, *, #41, .T. ) ;
#12 = VECTOR ( 'NONE', #215, 1000.000000000000000 ) ;
#13 = DIRECTION ( 'NONE',  ( 1.000000000000000000, 0.000000000000000000, 0.000000000000000000 ) ) ;
#14 = CALENDAR_DATE ( 2023, 12, 2 ) ;
#15 = ORIENTED_EDGE ( 'NONE', *, *, #196, .F. ) ;
#16 = ORIENTED_EDGE ( 'NONE', *, *, #63, .T. ) ;
#17 = CC_DESIGN_APPROVAL ( #216, ( #239 ) ) ;
#18 = CIRCLE ( 'NONE', #231, 1.000000000000000000 ) ;
#19 = ADVANCED_FACE ( 'NONE', ( #108 ), #128, .T. ) ;
#20 = LOCAL_TIME ( 13, 53, 20.00000000000000000, #181 ) ;
#21 = DATE_AND_TIME ( #127, #147 ) ;
#22 = DIRECTION ( 'NONE',  ( -0.000000000000000000, -0.000000000000000000, -1.000000000000000000 ) ) ;
#23 = CLOSED_SHELL ( 'NONE', ( #92, #87, #125, #100, #47, #19, #254 ) ) ;
#24 = DIRECTION ( 'NONE',  ( 0.000000000000000000, 0.000000000000000000, 1.000000000000000000 ) ) ;
#25 = DIRECTION ( 'NONE',  ( -1.000000000000000000, 0.000000000000000000, 0.000000000000000000 ) ) ;
#26 = PLANE ( 'NONE',  #36 ) ;
#27 = AXIS2_PLACEMENT_3D ( 'NONE', #241, #28, #39 ) ;
#28 = DIRECTION ( 'NONE',  ( -0.000000000000000000, -0.000000000000000000, -1.000000000000000000 ) ) ;
#29 = FACE_OUTER_BOUND ( 'NONE', #94, .T. ) ;
#30 = EDGE_LOOP ( 'NONE', ( #148, #90, #107, #114 ) ) ;
#31 = CARTESIAN_POINT ( 'NONE',  ( 0.000000000000000000, 0.000000000000000000, 125.0000000000000000 ) ) ;
#32 = EDGE_CURVE ( 'NONE', #185, #99, #91, .T. ) ;
#33 = AXIS2_PLACEMENT_3D ( 'NONE', #177, #22, #201 ) ;
#34 = PRODUCT_DEFINITION_SHAPE ( 'NONE', 'NONE',  #2 ) ;
#35 = APPROVAL_DATE_TIME ( #21, #143 ) ;
#36 = AXIS2_PLACEMENT_3D ( 'NONE', #184, #206, #61 ) ;
#37 = CIRCLE ( 'NONE', #209, 2.000000000000000000 ) ;
#38 = APPROVAL_PERSON_ORGANIZATION ( #171, #216, #45 ) ;
#39 = DIRECTION ( 'NONE',  ( -1.000000000000000000, 0.000000000000000000, 0.000000000000000000 ) ) ;
#40 = APPLICATION_CONTEXT ( 'configuration controlled 3d designs of mechanical parts and assemblies' ) ;
#41 = EDGE_CURVE ( 'NONE', #251, #195, #18, .T. ) ;
#42 = PERSON_AND_ORGANIZATION_ROLE ( 'design_supplier' ) ;
#43 = CC_DESIGN_PERSON_AND_ORGANIZATION_ASSIGNMENT ( #80, #4, ( #164 ) ) ;
#44 = FACE_OUTER_BOUND ( 'NONE', #86, .T. ) ;
#45 = APPROVAL_ROLE ( '' ) ;
#46 = DIRECTION ( 'NONE',  ( 0.000000000000000000, 0.000000000000000000, 1.000000000000000000 ) ) ;
#47 = ADVANCED_FACE ( 'NONE', ( #60 ), #187, .F. ) ;
#48 = ADVANCED_BREP_SHAPE_REPRESENTATION ( 'bd43', ( #222, #59 ), #154 ) ;
#49 = CARTESIAN_POINT ( 'NONE',  ( -1.000000000000000000, 0.000000000000000000, 125.0000000000000000 ) ) ;
#50 = CARTESIAN_POINT ( 'NONE',  ( 0.000000000000000000, 0.000000000000000000, 0.000000000000000000 ) ) ;
#51 = ORIENTED_EDGE ( 'NONE', *, *, #133, .T. ) ;
#52 = COORDINATED_UNIVERSAL_TIME_OFFSET ( 1, 0, .AHEAD. ) ;
#53 = CARTESIAN_POINT ( 'NONE',  ( 0.000000000000000000, 0.000000000000000000, 125.0000000000000000 ) ) ;
#54 = AXIS2_PLACEMENT_3D ( 'NONE', #163, #135, #75 ) ;
#55 = AXIS2_PLACEMENT_3D ( 'NONE', #167, #68, #250 ) ;
#56 = APPLICATION_PROTOCOL_DEFINITION ( 'international standard', 'config_control_design', 1994, #40 ) ;
#57 = APPROVAL_ROLE ( '' ) ;
#58 = CARTESIAN_POINT ( 'NONE',  ( 2.000000000000000000, 2.449293598294706414E-16, 2.000000000000000000 ) ) ;
#59 = AXIS2_PLACEMENT_3D ( 'NONE', #50, #183, #180 ) ;
#60 = FACE_OUTER_BOUND ( 'NONE', #172, .T. ) ;
#61 = DIRECTION ( 'NONE',  ( 1.000000000000000000, 0.000000000000000000, -0.000000000000000000 ) ) ;
#62 = CALENDAR_DATE ( 2023, 12, 2 ) ;
#63 = EDGE_CURVE ( 'NONE', #9, #199, #178, .T. ) ;
#64 = DATE_TIME_ROLE ( 'creation_date' ) ;
#65 = ORIENTED_EDGE ( 'NONE', *, *, #150, .T. ) ;
#66 = DIRECTION ( 'NONE',  ( 1.000000000000000000, 0.000000000000000000, 0.000000000000000000 ) ) ;
#67 = ORIENTED_EDGE ( 'NONE', *, *, #150, .F. ) ;
#68 = DIRECTION ( 'NONE',  ( 0.000000000000000000, 0.000000000000000000, 1.000000000000000000 ) ) ;
#69 = COORDINATED_UNIVERSAL_TIME_OFFSET ( 1, 0, .AHEAD. ) ;
#70 = DATE_TIME_ROLE ( 'classification_date' ) ;
#71 = UNCERTAINTY_MEASURE_WITH_UNIT (LENGTH_MEASURE( 1.000000000000000082E-05 ), #213, 'distance_accuracy_value', 'NONE');
#72 = CARTESIAN_POINT ( 'NONE',  ( 0.000000000000000000, 0.000000000000000000, 0.000000000000000000 ) ) ;
#73 = VECTOR ( 'NONE', #8, 1000.000000000000000 ) ;
#74 = CC_DESIGN_PERSON_AND_ORGANIZATION_ASSIGNMENT ( #211, #188, ( #141 ) ) ;
#75 = DIRECTION ( 'NONE',  ( -1.000000000000000000, 0.000000000000000000, 0.000000000000000000 ) ) ;
#76 = EDGE_CURVE ( 'NONE', #233, #199, #81, .T. ) ;
#77 = DATE_AND_TIME ( #137, #20 ) ;
#78 = DIRECTION ( 'NONE',  ( -0.000000000000000000, -0.000000000000000000, -1.000000000000000000 ) ) ;
#79 = LOCAL_TIME ( 13, 53, 20.00000000000000000, #69 ) ;
#80 = PERSON_AND_ORGANIZATION ( #130, #244 ) ;
#81 = LINE ( 'NONE', #58, #109 ) ;
#82 = CC_DESIGN_DATE_AND_TIME_ASSIGNMENT ( #129, #70, ( #141 ) ) ;
#83 = ORIENTED_EDGE ( 'NONE', *, *, #191, .T. ) ;
#84 = CIRCLE ( 'NONE', #225, 2.000000000000000000 ) ;
#85 = DATE_AND_TIME ( #62, #79 ) ;
#86 = EDGE_LOOP ( 'NONE', ( #126, #11 ) ) ;
#87 = ADVANCED_FACE ( 'NONE', ( #29 ), #3, .T. ) ;
#88 = PERSON_AND_ORGANIZATION_ROLE ( 'creator' ) ;
#89 = CARTESIAN_POINT ( 'NONE',  ( 2.000000000000000000, 2.449293598294706414E-16, 2.000000000000000000 ) ) ;
#90 = ORIENTED_EDGE ( 'NONE', *, *, #131, .T. ) ;
#91 = CIRCLE ( 'NONE', #111, 1.000000000000000000 ) ;
#92 = ADVANCED_FACE ( 'NONE', ( #142 ), #243, .T. ) ;
#93 = CARTESIAN_POINT ( 'NONE',  ( 0.000000000000000000, 0.000000000000000000, 2.000000000000000000 ) ) ;
#94 = EDGE_LOOP ( 'NONE', ( #15, #136, #51, #235 ) ) ;
#95 = FACE_OUTER_BOUND ( 'NONE', #158, .T. ) ;
#96 = AXIS2_PLACEMENT_3D ( 'NONE', #72, #124, #66 ) ;
#97 = FACE_BOUND ( 'NONE', #248, .T. ) ;
#98 = FACE_OUTER_BOUND ( 'NONE', #175, .T. ) ;
#99 = VERTEX_POINT ( 'NONE', #157 ) ;
#100 = ADVANCED_FACE ( 'NONE', ( #97, #98 ), #26, .T. ) ;
#101 = APPLICATION_PROTOCOL_DEFINITION ( 'international standard', 'config_control_design', 1994, #169 ) ;
#102 =( NAMED_UNIT ( * ) SI_UNIT ( $, .STERADIAN. ) SOLID_ANGLE_UNIT ( ) );
#103 = ORIENTED_EDGE ( 'NONE', *, *, #63, .F. ) ;
#104 =( NAMED_UNIT ( * ) PLANE_ANGLE_UNIT ( ) SI_UNIT ( $, .RADIAN. ) );
#105 = CC_DESIGN_SECURITY_CLASSIFICATION ( #141, ( #239 ) ) ;
#106 = EDGE_CURVE ( 'NONE', #195, #99, #207, .T. ) ;
#107 = ORIENTED_EDGE ( 'NONE', *, *, #32, .T. ) ;
#108 = FACE_OUTER_BOUND ( 'NONE', #221, .T. ) ;
#109 = VECTOR ( 'NONE', #246, 1000.000000000000000 ) ;
#110 = CC_DESIGN_DATE_AND_TIME_ASSIGNMENT ( #85, #64, ( #2 ) ) ;
#111 = AXIS2_PLACEMENT_3D ( 'NONE', #93, #237, #255 ) ;
#112 = CC_DESIGN_PERSON_AND_ORGANIZATION_ASSIGNMENT ( #218, #42, ( #239 ) ) ;
#113 = DIRECTION ( 'NONE',  ( 1.000000000000000000, 0.000000000000000000, 0.000000000000000000 ) ) ;
#114 = ORIENTED_EDGE ( 'NONE', *, *, #106, .F. ) ;
#115 = AXIS2_PLACEMENT_3D ( 'NONE', #31, #46, #122 ) ;
#116 = ORIENTED_EDGE ( 'NONE', *, *, #131, .F. ) ;
#117 = SECURITY_CLASSIFICATION_LEVEL ( 'unclassified' ) ;
#118 = DIRECTION ( 'NONE',  ( 0.000000000000000000, 0.000000000000000000, 1.000000000000000000 ) ) ;
#119 = DIRECTION ( 'NONE',  ( 0.000000000000000000, 0.000000000000000000, 1.000000000000000000 ) ) ;
#120 = DIRECTION ( 'NONE',  ( 1.000000000000000000, 0.000000000000000000, 0.000000000000000000 ) ) ;
#121 = CC_DESIGN_APPROVAL ( #223, ( #2 ) ) ;
#122 = DIRECTION ( 'NONE',  ( 1.000000000000000000, 0.000000000000000000, -0.000000000000000000 ) ) ;
#123 = ORIENTED_EDGE ( 'NONE', *, *, #204, .F. ) ;
#124 = DIRECTION ( 'NONE',  ( 0.000000000000000000, 0.000000000000000000, 1.000000000000000000 ) ) ;
#125 = ADVANCED_FACE ( 'NONE', ( #95 ), #228, .T. ) ;
#126 = ORIENTED_EDGE ( 'NONE', *, *, #204, .T. ) ;
#127 = CALENDAR_DATE ( 2023, 12, 2 ) ;
#128 = CYLINDRICAL_SURFACE ( 'NONE', #33, 1.000000000000000000 ) ;
#129 = DATE_AND_TIME ( #176, #132 ) ;
#130 = PERSON ( 'NEURÈENÝ', 'NEURÈENÝ', 'NEURÈENÝ', ('NEURÈENÝ'), ('NEURÈENÝ'), ('NEURÈENÝ') ) ;
#131 = EDGE_CURVE ( 'NONE', #251, #185, #182, .T. ) ;
#132 = LOCAL_TIME ( 13, 53, 20.00000000000000000, #200 ) ;
#133 = EDGE_CURVE ( 'NONE', #199, #9, #134, .T. ) ;
#134 = CIRCLE ( 'NONE', #96, 2.000000000000000000 ) ;
#135 = DIRECTION ( 'NONE',  ( -0.000000000000000000, -0.000000000000000000, -1.000000000000000000 ) ) ;
#136 = ORIENTED_EDGE ( 'NONE', *, *, #76, .T. ) ;
#137 = CALENDAR_DATE ( 2023, 12, 2 ) ;
#138 = CARTESIAN_POINT ( 'NONE',  ( -1.000000000000000000, 0.000000000000000000, 125.0000000000000000 ) ) ;
#139 = PERSON_AND_ORGANIZATION_ROLE ( 'creator' ) ;
#140 = COORDINATED_UNIVERSAL_TIME_OFFSET ( 1, 0, .AHEAD. ) ;
#141 = SECURITY_CLASSIFICATION ( '', '', #117 ) ;
#142 = FACE_OUTER_BOUND ( 'NONE', #30, .T. ) ;
#143 = APPROVAL ( #226, 'NEURÈENÝ' ) ;
#144 = ORIENTED_EDGE ( 'NONE', *, *, #155, .T. ) ;
#145 = CARTESIAN_POINT ( 'NONE',  ( 1.000000000000000000, 1.224646799147353207E-16, 2.000000000000000000 ) ) ;
#146 = ORIENTED_EDGE ( 'NONE', *, *, #32, .F. ) ;
#147 = LOCAL_TIME ( 13, 53, 20.00000000000000000, #52 ) ;
#148 = ORIENTED_EDGE ( 'NONE', *, *, #41, .F. ) ;
#149 = APPROVAL_STATUS ( 'not_yet_approved' ) ;
#150 = EDGE_CURVE ( 'NONE', #252, #233, #37, .T. ) ;
#151 = DIRECTION ( 'NONE',  ( 1.000000000000000000, 0.000000000000000000, 0.000000000000000000 ) ) ;
#152 = APPROVAL_ROLE ( '' ) ;
#153 = DESIGN_CONTEXT ( 'detailed design', #40, 'design' ) ;
#154 =( GEOMETRIC_REPRESENTATION_CONTEXT ( 3 ) GLOBAL_UNCERTAINTY_ASSIGNED_CONTEXT ( ( #71 ) ) GLOBAL_UNIT_ASSIGNED_CONTEXT ( ( #213, #104, #102 ) ) REPRESENTATION_CONTEXT ( 'NONE', 'WORKASPACE' ) );
#155 = EDGE_CURVE ( 'NONE', #99, #185, #156, .T. ) ;
#156 = CIRCLE ( 'NONE', #160, 1.000000000000000000 ) ;
#157 = CARTESIAN_POINT ( 'NONE',  ( -1.000000000000000000, 0.000000000000000000, 2.000000000000000000 ) ) ;
#158 = EDGE_LOOP ( 'NONE', ( #203, #67, #83, #16 ) ) ;
#159 = DIRECTION ( 'NONE',  ( 1.000000000000000000, 0.000000000000000000, -0.000000000000000000 ) ) ;
#160 = AXIS2_PLACEMENT_3D ( 'NONE', #173, #119, #120 ) ;
#161 = APPROVAL_DATE_TIME ( #77, #223 ) ;
#162 = PRODUCT_RELATED_PRODUCT_CATEGORY ( 'detail', '', ( #164 ) ) ;
#163 = CARTESIAN_POINT ( 'NONE',  ( 0.000000000000000000, 0.000000000000000000, 2.000000000000000000 ) ) ;
#164 = PRODUCT ( 'bd43', 'bd43', '', ( #186 ) ) ;
#165 = CARTESIAN_POINT ( 'NONE',  ( 0.000000000000000000, 0.000000000000000000, 0.000000000000000000 ) ) ;
#166 = CARTESIAN_POINT ( 'NONE',  ( 0.000000000000000000, 0.000000000000000000, 2.000000000000000000 ) ) ;
#167 = CARTESIAN_POINT ( 'NONE',  ( 0.000000000000000000, 0.000000000000000000, 125.0000000000000000 ) ) ;
#168 = ORIENTED_EDGE ( 'NONE', *, *, #106, .T. ) ;
#169 = APPLICATION_CONTEXT ( 'configuration controlled 3d designs of mechanical parts and assemblies' ) ;
#170 = CC_DESIGN_PERSON_AND_ORGANIZATION_ASSIGNMENT ( #245, #139, ( #2 ) ) ;
#171 = PERSON_AND_ORGANIZATION ( #130, #244 ) ;
#172 = EDGE_LOOP ( 'NONE', ( #103, #217 ) ) ;
#173 = CARTESIAN_POINT ( 'NONE',  ( 0.000000000000000000, 0.000000000000000000, 2.000000000000000000 ) ) ;
#174 = PERSON_AND_ORGANIZATION ( #130, #244 ) ;
#175 = EDGE_LOOP ( 'NONE', ( #65, #197 ) ) ;
#176 = CALENDAR_DATE ( 2023, 12, 2 ) ;
#177 = CARTESIAN_POINT ( 'NONE',  ( 0.000000000000000000, 0.000000000000000000, 125.0000000000000000 ) ) ;
#178 = CIRCLE ( 'NONE', #220, 2.000000000000000000 ) ;
#179 = CIRCLE ( 'NONE', #55, 1.000000000000000000 ) ;
#180 = DIRECTION ( 'NONE',  ( 1.000000000000000000, 0.000000000000000000, 0.000000000000000000 ) ) ;
#181 = COORDINATED_UNIVERSAL_TIME_OFFSET ( 1, 0, .AHEAD. ) ;
#182 = LINE ( 'NONE', #247, #208 ) ;
#183 = DIRECTION ( 'NONE',  ( 0.000000000000000000, 0.000000000000000000, 1.000000000000000000 ) ) ;
#184 = CARTESIAN_POINT ( 'NONE',  ( 0.000000000000000000, 0.000000000000000000, 2.000000000000000000 ) ) ;
#185 = VERTEX_POINT ( 'NONE', #145 ) ;
#186 = MECHANICAL_CONTEXT ( 'NONE', #169, 'mechanical' ) ;
#187 = PLANE ( 'NONE',  #224 ) ;
#188 = PERSON_AND_ORGANIZATION_ROLE ( 'classification_officer' ) ;
#189 = AXIS2_PLACEMENT_3D ( 'NONE', #166, #227, #25 ) ;
#190 = CARTESIAN_POINT ( 'NONE',  ( -2.000000000000000000, 0.000000000000000000, 2.000000000000000000 ) ) ;
#191 = EDGE_CURVE ( 'NONE', #252, #9, #192, .T. ) ;
#192 = LINE ( 'NONE', #190, #12 ) ;
#193 = APPROVAL_DATE_TIME ( #214, #216 ) ;
#194 = CARTESIAN_POINT ( 'NONE',  ( 2.000000000000000000, 2.449293598294706414E-16, 0.000000000000000000 ) ) ;
#195 = VERTEX_POINT ( 'NONE', #49 ) ;
#196 = EDGE_CURVE ( 'NONE', #233, #252, #84, .T. ) ;
#197 = ORIENTED_EDGE ( 'NONE', *, *, #196, .T. ) ;
#198 = APPROVAL_PERSON_ORGANIZATION ( #236, #143, #152 ) ;
#199 = VERTEX_POINT ( 'NONE', #194 ) ;
#200 = COORDINATED_UNIVERSAL_TIME_OFFSET ( 1, 0, .AHEAD. ) ;
#201 = DIRECTION ( 'NONE',  ( -1.000000000000000000, 0.000000000000000000, 0.000000000000000000 ) ) ;
#202 = APPROVAL_PERSON_ORGANIZATION ( #242, #223, #57 ) ;
#203 = ORIENTED_EDGE ( 'NONE', *, *, #76, .F. ) ;
#204 = EDGE_CURVE ( 'NONE', #195, #251, #179, .T. ) ;
#205 = APPROVAL_STATUS ( 'not_yet_approved' ) ;
#206 = DIRECTION ( 'NONE',  ( 0.000000000000000000, 0.000000000000000000, 1.000000000000000000 ) ) ;
#207 = LINE ( 'NONE', #138, #73 ) ;
#208 = VECTOR ( 'NONE', #78, 1000.000000000000000 ) ;
#209 = AXIS2_PLACEMENT_3D ( 'NONE', #212, #118, #151 ) ;
#210 = CARTESIAN_POINT ( 'NONE',  ( 0.000000000000000000, 0.000000000000000000, 0.000000000000000000 ) ) ;
#211 = PERSON_AND_ORGANIZATION ( #130, #244 ) ;
#212 = CARTESIAN_POINT ( 'NONE',  ( 0.000000000000000000, 0.000000000000000000, 2.000000000000000000 ) ) ;
#213 =( LENGTH_UNIT ( ) NAMED_UNIT ( * ) SI_UNIT ( .MILLI., .METRE. ) );
#214 = DATE_AND_TIME ( #14, #5 ) ;
#215 = DIRECTION ( 'NONE',  ( -0.000000000000000000, -0.000000000000000000, -1.000000000000000000 ) ) ;
#216 = APPROVAL ( #149, 'NEURÈENÝ' ) ;
#217 = ORIENTED_EDGE ( 'NONE', *, *, #133, .F. ) ;
#218 = PERSON_AND_ORGANIZATION ( #130, #244 ) ;
#219 = CARTESIAN_POINT ( 'NONE',  ( 0.000000000000000000, 0.000000000000000000, 2.000000000000000000 ) ) ;
#220 = AXIS2_PLACEMENT_3D ( 'NONE', #210, #7, #113 ) ;
#221 = EDGE_LOOP ( 'NONE', ( #116, #123, #168, #144 ) ) ;
#222 = MANIFOLD_SOLID_BREP ( 'Pøidat vysunutím3', #23 ) ;
#223 = APPROVAL ( #205, 'NEURÈENÝ' ) ;
#224 = AXIS2_PLACEMENT_3D ( 'NONE', #165, #24, #159 ) ;
#225 = AXIS2_PLACEMENT_3D ( 'NONE', #219, #249, #13 ) ;
#226 = APPROVAL_STATUS ( 'not_yet_approved' ) ;
#227 = DIRECTION ( 'NONE',  ( -0.000000000000000000, -0.000000000000000000, -1.000000000000000000 ) ) ;
#228 = CYLINDRICAL_SURFACE ( 'NONE', #189, 2.000000000000000000 ) ;
#229 = CC_DESIGN_APPROVAL ( #143, ( #141 ) ) ;
#230 = ORIENTED_EDGE ( 'NONE', *, *, #155, .F. ) ;
#231 = AXIS2_PLACEMENT_3D ( 'NONE', #53, #240, #1 ) ;
#232 = CARTESIAN_POINT ( 'NONE',  ( -2.000000000000000000, 0.000000000000000000, 2.000000000000000000 ) ) ;
#233 = VERTEX_POINT ( 'NONE', #89 ) ;
#234 = PLANE ( 'NONE',  #115 ) ;
#235 = ORIENTED_EDGE ( 'NONE', *, *, #191, .F. ) ;
#236 = PERSON_AND_ORGANIZATION ( #130, #244 ) ;
#237 = DIRECTION ( 'NONE',  ( 0.000000000000000000, 0.000000000000000000, 1.000000000000000000 ) ) ;
#238 = SHAPE_DEFINITION_REPRESENTATION ( #34, #48 ) ;
#239 = PRODUCT_DEFINITION_FORMATION_WITH_SPECIFIED_SOURCE ( 'LIBOVOLNÝ', '', #164, .NOT_KNOWN. ) ;
#240 = DIRECTION ( 'NONE',  ( 0.000000000000000000, 0.000000000000000000, 1.000000000000000000 ) ) ;
#241 = CARTESIAN_POINT ( 'NONE',  ( 0.000000000000000000, 0.000000000000000000, 125.0000000000000000 ) ) ;
#242 = PERSON_AND_ORGANIZATION ( #130, #244 ) ;
#243 = CYLINDRICAL_SURFACE ( 'NONE', #27, 1.000000000000000000 ) ;
#244 = ORGANIZATION ( 'NEURÈENÝ', 'NEURÈENÝ', '' ) ;
#245 = PERSON_AND_ORGANIZATION ( #130, #244 ) ;
#246 = DIRECTION ( 'NONE',  ( -0.000000000000000000, -0.000000000000000000, -1.000000000000000000 ) ) ;
#247 = CARTESIAN_POINT ( 'NONE',  ( 1.000000000000000000, 1.224646799147353207E-16, 125.0000000000000000 ) ) ;
#248 = EDGE_LOOP ( 'NONE', ( #230, #146 ) ) ;
#249 = DIRECTION ( 'NONE',  ( 0.000000000000000000, 0.000000000000000000, 1.000000000000000000 ) ) ;
#250 = DIRECTION ( 'NONE',  ( 1.000000000000000000, 0.000000000000000000, 0.000000000000000000 ) ) ;
#251 = VERTEX_POINT ( 'NONE', #10 ) ;
#252 = VERTEX_POINT ( 'NONE', #232 ) ;
#253 = CARTESIAN_POINT ( 'NONE',  ( -2.000000000000000000, 0.000000000000000000, 0.000000000000000000 ) ) ;
#254 = ADVANCED_FACE ( 'NONE', ( #44 ), #234, .T. ) ;
#255 = DIRECTION ( 'NONE',  ( 1.000000000000000000, 0.000000000000000000, 0.000000000000000000 ) ) ;
ENDSEC;
END-ISO-10303-21;
