ISO-10303-21;
HEADER;
FILE_DESCRIPTION (( 'STEP AP203' ),
    '1' );
FILE_NAME ('9426.STEP',
    '2022-07-07T09:47:26',
    ( '' ),
    ( '' ),
    'SwSTEP 2.0',
    'SolidWorks 2019',
    '' );
FILE_SCHEMA (( 'CONFIG_CONTROL_DESIGN' ));
ENDSEC;

DATA;
#1 = CIRCLE ( 'NONE', #171, 6.000000000000000888 ) ;
#2 = CC_DESIGN_SECURITY_CLASSIFICATION ( #260, ( #185 ) ) ;
#3 = DIRECTION ( 'NONE',  ( 1.000000000000000000, 0.000000000000000000, 0.000000000000000000 ) ) ;
#4 = CARTESIAN_POINT ( 'NONE',  ( 0.000000000000000000, 0.000000000000000000, 0.000000000000000000 ) ) ;
#5 = CARTESIAN_POINT ( 'NONE',  ( 0.000000000000000000, 0.000000000000000000, 7.000000000000000000 ) ) ;
#6 = AXIS2_PLACEMENT_3D ( 'NONE', #273, #58, #3 ) ;
#7 = DIRECTION ( 'NONE',  ( -0.000000000000000000, -0.000000000000000000, -1.000000000000000000 ) ) ;
#8 = CYLINDRICAL_SURFACE ( 'NONE', #111, 6.000000000000000888 ) ;
#9 = DIRECTION ( 'NONE',  ( 0.000000000000000000, 0.000000000000000000, 1.000000000000000000 ) ) ;
#10 = CC_DESIGN_PERSON_AND_ORGANIZATION_ASSIGNMENT ( #207, #182, ( #264 ) ) ;
#11 = DIRECTION ( 'NONE',  ( -0.000000000000000000, -0.000000000000000000, -1.000000000000000000 ) ) ;
#12 = FACE_OUTER_BOUND ( 'NONE', #170, .T. ) ;
#13 = CARTESIAN_POINT ( 'NONE',  ( 0.000000000000000000, 0.000000000000000000, 7.199999999999998401 ) ) ;
#14 = AXIS2_PLACEMENT_3D ( 'NONE', #295, #278, #136 ) ;
#15 = PERSON_AND_ORGANIZATION_ROLE ( 'design_supplier' ) ;
#16 = CARTESIAN_POINT ( 'NONE',  ( 9.000000000000000000, 1.102182119232617714E-15, 7.000000000000000000 ) ) ;
#17 = ADVANCED_BREP_SHAPE_REPRESENTATION ( '9426', ( #55, #268 ), #162 ) ;
#18 = APPROVAL_ROLE ( '' ) ;
#19 = DATE_AND_TIME ( #261, #198 ) ;
#20 = ORIENTED_EDGE ( 'NONE', *, *, #110, .F. ) ;
#21 = TOROIDAL_SURFACE ( 'NONE', #191, 6.200000000000001066, 0.2000000000000000111 ) ;
#22 = LOCAL_TIME ( 11, 47, 26.00000000000000000, #49 ) ;
#23 =( LENGTH_UNIT ( ) NAMED_UNIT ( * ) SI_UNIT ( .MILLI., .METRE. ) );
#24 = ORIENTED_EDGE ( 'NONE', *, *, #307, .F. ) ;
#25 = EDGE_CURVE ( 'NONE', #213, #183, #1, .T. ) ;
#26 = ORIENTED_EDGE ( 'NONE', *, *, #167, .T. ) ;
#27 = CIRCLE ( 'NONE', #285, 6.000000000000000888 ) ;
#28 = CIRCLE ( 'NONE', #305, 9.000000000000000000 ) ;
#29 = ORGANIZATION ( 'NEURÈENÝ', 'NEURÈENÝ', '' ) ;
#30 = ADVANCED_FACE ( 'NONE', ( #290 ), #245, .T. ) ;
#31 = DIRECTION ( 'NONE',  ( 1.000000000000000000, 0.000000000000000000, 0.000000000000000000 ) ) ;
#32 = LINE ( 'NONE', #221, #38 ) ;
#33 = APPROVAL ( #258, 'NEURÈENÝ' ) ;
#34 = CARTESIAN_POINT ( 'NONE',  ( 0.000000000000000000, 0.000000000000000000, 7.199999999999998401 ) ) ;
#35 = DIRECTION ( 'NONE',  ( 1.000000000000000000, 0.000000000000000000, 0.000000000000000000 ) ) ;
#36 = PERSON_AND_ORGANIZATION ( #169, #29 ) ;
#37 = DIRECTION ( 'NONE',  ( -0.000000000000000000, -0.000000000000000000, -1.000000000000000000 ) ) ;
#38 = VECTOR ( 'NONE', #7, 1000.000000000000000 ) ;
#39 = EDGE_CURVE ( 'NONE', #72, #142, #259, .T. ) ;
#40 = DATE_AND_TIME ( #248, #197 ) ;
#41 = CARTESIAN_POINT ( 'NONE',  ( 0.000000000000000000, 0.000000000000000000, 7.199999999999998401 ) ) ;
#42 = CARTESIAN_POINT ( 'NONE',  ( 0.000000000000000000, 0.000000000000000000, 7.000000000000000000 ) ) ;
#43 = DESIGN_CONTEXT ( 'detailed design', #288, 'design' ) ;
#44 = DIRECTION ( 'NONE',  ( 0.000000000000000000, 0.000000000000000000, 1.000000000000000000 ) ) ;
#45 = PERSON_AND_ORGANIZATION_ROLE ( 'classification_officer' ) ;
#46 = ADVANCED_FACE ( 'NONE', ( #246 ), #21, .F. ) ;
#47 = DIRECTION ( 'NONE',  ( 0.000000000000000000, -1.000000000000000000, 0.000000000000000000 ) ) ;
#48 = CIRCLE ( 'NONE', #223, 9.000000000000000000 ) ;
#49 = COORDINATED_UNIVERSAL_TIME_OFFSET ( 1, 0, .AHEAD. ) ;
#50 = EDGE_LOOP ( 'NONE', ( #97, #88 ) ) ;
#51 = ORIENTED_EDGE ( 'NONE', *, *, #256, .F. ) ;
#52 = CC_DESIGN_APPROVAL ( #33, ( #135 ) ) ;
#53 = ADVANCED_FACE ( 'NONE', ( #131 ), #220, .F. ) ;
#54 = AXIS2_PLACEMENT_3D ( 'NONE', #4, #229, #60 ) ;
#55 = MANIFOLD_SOLID_BREP ( 'Zaoblit1', #116 ) ;
#56 = EDGE_CURVE ( 'NONE', #183, #62, #32, .T. ) ;
#57 = DIRECTION ( 'NONE',  ( -0.000000000000000000, -0.000000000000000000, -1.000000000000000000 ) ) ;
#58 = DIRECTION ( 'NONE',  ( -0.000000000000000000, -0.000000000000000000, -1.000000000000000000 ) ) ;
#59 = PLANE ( 'NONE',  #90 ) ;
#60 = DIRECTION ( 'NONE',  ( 1.000000000000000000, 0.000000000000000000, -0.000000000000000000 ) ) ;
#61 = CYLINDRICAL_SURFACE ( 'NONE', #14, 6.000000000000000888 ) ;
#62 = VERTEX_POINT ( 'NONE', #78 ) ;
#63 = DIRECTION ( 'NONE',  ( 1.000000000000000000, 0.000000000000000000, -0.000000000000000000 ) ) ;
#64 = APPROVAL_STATUS ( 'not_yet_approved' ) ;
#65 = PRODUCT_DEFINITION_SHAPE ( 'NONE', 'NONE',  #135 ) ;
#66 = DIRECTION ( 'NONE',  ( -1.000000000000000000, 0.000000000000000000, 0.000000000000000000 ) ) ;
#67 = DIRECTION ( 'NONE',  ( 0.000000000000000000, 0.000000000000000000, 1.000000000000000000 ) ) ;
#68 = APPLICATION_PROTOCOL_DEFINITION ( 'international standard', 'config_control_design', 1994, #288 ) ;
#69 = ORIENTED_EDGE ( 'NONE', *, *, #56, .F. ) ;
#70 = APPROVAL_PERSON_ORGANIZATION ( #282, #33, #18 ) ;
#71 = APPROVAL_ROLE ( '' ) ;
#72 = VERTEX_POINT ( 'NONE', #154 ) ;
#73 = DIRECTION ( 'NONE',  ( 0.000000000000000000, 0.000000000000000000, 1.000000000000000000 ) ) ;
#74 = VERTEX_POINT ( 'NONE', #250 ) ;
#75 = AXIS2_PLACEMENT_3D ( 'NONE', #276, #47, #137 ) ;
#76 = ORIENTED_EDGE ( 'NONE', *, *, #91, .T. ) ;
#77 = AXIS2_PLACEMENT_3D ( 'NONE', #181, #226, #281 ) ;
#78 = CARTESIAN_POINT ( 'NONE',  ( -6.000000000000000888, 0.000000000000000000, 7.199999999999998401 ) ) ;
#79 = CARTESIAN_POINT ( 'NONE',  ( -6.000000000000000888, 0.000000000000000000, 107.0000000000000142 ) ) ;
#80 = CARTESIAN_POINT ( 'NONE',  ( 0.000000000000000000, 0.000000000000000000, 7.000000000000000000 ) ) ;
#81 = FACE_OUTER_BOUND ( 'NONE', #294, .T. ) ;
#82 = ORIENTED_EDGE ( 'NONE', *, *, #91, .F. ) ;
#83 = DIRECTION ( 'NONE',  ( 1.000000000000000000, 0.000000000000000000, 0.000000000000000000 ) ) ;
#84 = CARTESIAN_POINT ( 'NONE',  ( 0.000000000000000000, 0.000000000000000000, 7.000000000000000000 ) ) ;
#85 = DIRECTION ( 'NONE',  ( 1.000000000000000000, 0.000000000000000000, 0.000000000000000000 ) ) ;
#86 = APPROVAL ( #283, 'NEURÈENÝ' ) ;
#87 = DIRECTION ( 'NONE',  ( 1.000000000000000000, 0.000000000000000000, 0.000000000000000000 ) ) ;
#88 = ORIENTED_EDGE ( 'NONE', *, *, #25, .T. ) ;
#89 = CALENDAR_DATE ( 2022, 7, 7 ) ;
#90 = AXIS2_PLACEMENT_3D ( 'NONE', #153, #44, #63 ) ;
#91 = EDGE_CURVE ( 'NONE', #142, #72, #128, .T. ) ;
#92 = CC_DESIGN_PERSON_AND_ORGANIZATION_ASSIGNMENT ( #105, #45, ( #260 ) ) ;
#93 = VERTEX_POINT ( 'NONE', #124 ) ;
#94 = EDGE_CURVE ( 'NONE', #74, #118, #99, .T. ) ;
#95 = VECTOR ( 'NONE', #143, 1000.000000000000000 ) ;
#96 = DIRECTION ( 'NONE',  ( 1.000000000000000000, 0.000000000000000000, 0.000000000000000000 ) ) ;
#97 = ORIENTED_EDGE ( 'NONE', *, *, #239, .T. ) ;
#98 = PERSON_AND_ORGANIZATION ( #169, #29 ) ;
#99 = CIRCLE ( 'NONE', #267, 9.000000000000000000 ) ;
#100 = CC_DESIGN_APPROVAL ( #86, ( #185 ) ) ;
#101 = FACE_OUTER_BOUND ( 'NONE', #50, .T. ) ;
#102 = ORIENTED_EDGE ( 'NONE', *, *, #236, .T. ) ;
#103 = LINE ( 'NONE', #16, #120 ) ;
#104 = DIRECTION ( 'NONE',  ( -0.000000000000000000, -0.000000000000000000, -1.000000000000000000 ) ) ;
#105 = PERSON_AND_ORGANIZATION ( #169, #29 ) ;
#106 = FACE_OUTER_BOUND ( 'NONE', #296, .T. ) ;
#107 = DATE_TIME_ROLE ( 'classification_date' ) ;
#108 = CARTESIAN_POINT ( 'NONE',  ( -6.200000000000001066, 7.592810154713590821E-16, 7.199999999999998401 ) ) ;
#109 = APPLICATION_PROTOCOL_DEFINITION ( 'international standard', 'config_control_design', 1994, #147 ) ;
#110 = EDGE_CURVE ( 'NONE', #266, #93, #144, .T. ) ;
#111 = AXIS2_PLACEMENT_3D ( 'NONE', #234, #11, #66 ) ;
#112 = CC_DESIGN_APPROVAL ( #275, ( #260 ) ) ;
#113 = APPROVAL_ROLE ( '' ) ;
#114 = MECHANICAL_CONTEXT ( 'NONE', #147, 'mechanical' ) ;
#115 = CARTESIAN_POINT ( 'NONE',  ( 0.000000000000000000, 0.000000000000000000, 7.199999999999998401 ) ) ;
#116 = CLOSED_SHELL ( 'NONE', ( #299, #242, #177, #30, #193, #53, #222, #149, #46 ) ) ;
#117 = ORIENTED_EDGE ( 'NONE', *, *, #160, .F. ) ;
#118 = VERTEX_POINT ( 'NONE', #158 ) ;
#119 = EDGE_CURVE ( 'NONE', #93, #266, #48, .T. ) ;
#120 = VECTOR ( 'NONE', #121, 1000.000000000000000 ) ;
#121 = DIRECTION ( 'NONE',  ( -0.000000000000000000, -0.000000000000000000, -1.000000000000000000 ) ) ;
#122 = AXIS2_PLACEMENT_3D ( 'NONE', #42, #104, #35 ) ;
#123 = PRODUCT_RELATED_PRODUCT_CATEGORY ( 'detail', '', ( #264 ) ) ;
#124 = CARTESIAN_POINT ( 'NONE',  ( 9.000000000000000000, 1.102182119232617714E-15, 0.000000000000000000 ) ) ;
#125 = ORIENTED_EDGE ( 'NONE', *, *, #39, .T. ) ;
#126 = DIRECTION ( 'NONE',  ( 0.000000000000000000, 0.000000000000000000, 1.000000000000000000 ) ) ;
#127 = CALENDAR_DATE ( 2022, 7, 7 ) ;
#128 = CIRCLE ( 'NONE', #6, 6.200000000000001066 ) ;
#129 = LOCAL_TIME ( 11, 47, 26.00000000000000000, #196 ) ;
#130 = FACE_BOUND ( 'NONE', #175, .T. ) ;
#131 = FACE_OUTER_BOUND ( 'NONE', #140, .T. ) ;
#132 = COORDINATED_UNIVERSAL_TIME_OFFSET ( 1, 0, .AHEAD. ) ;
#133 = DIRECTION ( 'NONE',  ( 1.224646799147353207E-16, 1.000000000000000000, -0.000000000000000000 ) ) ;
#134 = ORIENTED_EDGE ( 'NONE', *, *, #218, .F. ) ;
#135 = PRODUCT_DEFINITION ( 'NEZNÁMÝ', '', #185, #43 ) ;
#136 = DIRECTION ( 'NONE',  ( -1.000000000000000000, 0.000000000000000000, 0.000000000000000000 ) ) ;
#137 = DIRECTION ( 'NONE',  ( 0.000000000000000000, 0.000000000000000000, -1.000000000000000000 ) ) ;
#138 = CIRCLE ( 'NONE', #168, 6.000000000000000888 ) ;
#139 = DATE_AND_TIME ( #89, #22 ) ;
#140 = EDGE_LOOP ( 'NONE', ( #20, #284 ) ) ;
#141 = DIRECTION ( 'NONE',  ( 0.000000000000000000, 0.000000000000000000, 1.000000000000000000 ) ) ;
#142 = VERTEX_POINT ( 'NONE', #257 ) ;
#143 = DIRECTION ( 'NONE',  ( -0.000000000000000000, -0.000000000000000000, -1.000000000000000000 ) ) ;
#144 = CIRCLE ( 'NONE', #205, 9.000000000000000000 ) ;
#145 = ORIENTED_EDGE ( 'NONE', *, *, #289, .T. ) ;
#146 = CC_DESIGN_DATE_AND_TIME_ASSIGNMENT ( #139, #237, ( #135 ) ) ;
#147 = APPLICATION_CONTEXT ( 'configuration controlled 3d designs of mechanical parts and assemblies' ) ;
#148 = CC_DESIGN_PERSON_AND_ORGANIZATION_ASSIGNMENT ( #98, #15, ( #185 ) ) ;
#149 = ADVANCED_FACE ( 'NONE', ( #101 ), #59, .T. ) ;
#150 = TOROIDAL_SURFACE ( 'NONE', #233, 6.200000000000001066, 0.2000000000000000111 ) ;
#151 = DIRECTION ( 'NONE',  ( -1.000000000000000000, 0.000000000000000000, 0.000000000000000000 ) ) ;
#152 = DIRECTION ( 'NONE',  ( 0.000000000000000000, 0.000000000000000000, 1.000000000000000000 ) ) ;
#153 = CARTESIAN_POINT ( 'NONE',  ( 0.000000000000000000, 0.000000000000000000, 107.0000000000000142 ) ) ;
#154 = CARTESIAN_POINT ( 'NONE',  ( 6.200000000000001066, 0.000000000000000000, 6.999999999999999112 ) ) ;
#155 = LINE ( 'NONE', #252, #251 ) ;
#156 = ORIENTED_EDGE ( 'NONE', *, *, #94, .T. ) ;
#157 = PLANE ( 'NONE',  #77 ) ;
#158 = CARTESIAN_POINT ( 'NONE',  ( 9.000000000000000000, 1.102182119232617714E-15, 7.000000000000000000 ) ) ;
#159 = DIRECTION ( 'NONE',  ( 1.000000000000000000, 0.000000000000000000, 0.000000000000000000 ) ) ;
#160 = EDGE_CURVE ( 'NONE', #118, #74, #28, .T. ) ;
#161 = CARTESIAN_POINT ( 'NONE',  ( -9.000000000000000000, 0.000000000000000000, 0.000000000000000000 ) ) ;
#162 =( GEOMETRIC_REPRESENTATION_CONTEXT ( 3 ) GLOBAL_UNCERTAINTY_ASSIGNED_CONTEXT ( ( #255 ) ) GLOBAL_UNIT_ASSIGNED_CONTEXT ( ( #23, #235, #265 ) ) REPRESENTATION_CONTEXT ( 'NONE', 'WORKASPACE' ) );
#163 = ORIENTED_EDGE ( 'NONE', *, *, #239, .F. ) ;
#164 = COORDINATED_UNIVERSAL_TIME_OFFSET ( 1, 0, .AHEAD. ) ;
#165 = LINE ( 'NONE', #303, #95 ) ;
#166 = ORIENTED_EDGE ( 'NONE', *, *, #110, .T. ) ;
#167 = EDGE_CURVE ( 'NONE', #62, #142, #179, .T. ) ;
#168 = AXIS2_PLACEMENT_3D ( 'NONE', #41, #217, #174 ) ;
#169 = PERSON ( 'NEURÈENÝ', 'NEURÈENÝ', 'NEURÈENÝ', ('NEURÈENÝ'), ('NEURÈENÝ'), ('NEURÈENÝ') ) ;
#170 = EDGE_LOOP ( 'NONE', ( #188, #253, #145, #69 ) ) ;
#171 = AXIS2_PLACEMENT_3D ( 'NONE', #178, #277, #194 ) ;
#172 = CARTESIAN_POINT ( 'NONE',  ( 0.000000000000000000, 0.000000000000000000, 7.000000000000000000 ) ) ;
#173 = PERSON_AND_ORGANIZATION_ROLE ( 'creator' ) ;
#174 = DIRECTION ( 'NONE',  ( 1.000000000000000000, 0.000000000000000000, 0.000000000000000000 ) ) ;
#175 = EDGE_LOOP ( 'NONE', ( #125, #76 ) ) ;
#176 = CARTESIAN_POINT ( 'NONE',  ( 0.000000000000000000, 0.000000000000000000, 107.0000000000000142 ) ) ;
#177 = ADVANCED_FACE ( 'NONE', ( #106 ), #203, .T. ) ;
#178 = CARTESIAN_POINT ( 'NONE',  ( 0.000000000000000000, 0.000000000000000000, 107.0000000000000142 ) ) ;
#179 = CIRCLE ( 'NONE', #192, 0.1999999999999996503 ) ;
#180 = DIRECTION ( 'NONE',  ( 1.000000000000000000, 0.000000000000000000, 0.000000000000000000 ) ) ;
#181 = CARTESIAN_POINT ( 'NONE',  ( 0.000000000000000000, 0.000000000000000000, 7.000000000000000000 ) ) ;
#182 = PERSON_AND_ORGANIZATION_ROLE ( 'design_owner' ) ;
#183 = VERTEX_POINT ( 'NONE', #79 ) ;
#184 = FACE_OUTER_BOUND ( 'NONE', #202, .T. ) ;
#185 = PRODUCT_DEFINITION_FORMATION_WITH_SPECIFIED_SOURCE ( 'LIBOVOLNÝ', '', #264, .NOT_KNOWN. ) ;
#186 = ORIENTED_EDGE ( 'NONE', *, *, #189, .T. ) ;
#187 = COORDINATED_UNIVERSAL_TIME_OFFSET ( 1, 0, .AHEAD. ) ;
#188 = ORIENTED_EDGE ( 'NONE', *, *, #25, .F. ) ;
#189 = EDGE_CURVE ( 'NONE', #62, #262, #138, .T. ) ;
#190 = ORIENTED_EDGE ( 'NONE', *, *, #160, .T. ) ;
#191 = AXIS2_PLACEMENT_3D ( 'NONE', #34, #126, #96 ) ;
#192 = AXIS2_PLACEMENT_3D ( 'NONE', #108, #133, #199 ) ;
#193 = ADVANCED_FACE ( 'NONE', ( #130, #231 ), #157, .T. ) ;
#194 = DIRECTION ( 'NONE',  ( 1.000000000000000000, 0.000000000000000000, 0.000000000000000000 ) ) ;
#195 = ORIENTED_EDGE ( 'NONE', *, *, #289, .F. ) ;
#196 = COORDINATED_UNIVERSAL_TIME_OFFSET ( 1, 0, .AHEAD. ) ;
#197 = LOCAL_TIME ( 11, 47, 26.00000000000000000, #164 ) ;
#198 = LOCAL_TIME ( 11, 47, 26.00000000000000000, #187 ) ;
#199 = DIRECTION ( 'NONE',  ( -1.000000000000000000, 1.224646799147353454E-16, 0.000000000000000000 ) ) ;
#200 = ORIENTED_EDGE ( 'NONE', *, *, #119, .T. ) ;
#201 = DIRECTION ( 'NONE',  ( 0.000000000000000000, 0.000000000000000000, 1.000000000000000000 ) ) ;
#202 = EDGE_LOOP ( 'NONE', ( #286, #26, #215, #134 ) ) ;
#203 = CYLINDRICAL_SURFACE ( 'NONE', #216, 9.000000000000000000 ) ;
#204 = DATE_AND_TIME ( #208, #225 ) ;
#205 = AXIS2_PLACEMENT_3D ( 'NONE', #227, #9, #301 ) ;
#206 = CARTESIAN_POINT ( 'NONE',  ( 6.000000000000000888, 7.347880794884120722E-16, 7.199999999999998401 ) ) ;
#207 = PERSON_AND_ORGANIZATION ( #169, #29 ) ;
#208 = CALENDAR_DATE ( 2022, 7, 7 ) ;
#209 = PERSON_AND_ORGANIZATION_ROLE ( 'creator' ) ;
#210 = PERSON_AND_ORGANIZATION ( #169, #29 ) ;
#211 = CIRCLE ( 'NONE', #240, 6.000000000000000888 ) ;
#212 = APPROVAL_DATE_TIME ( #19, #33 ) ;
#213 = VERTEX_POINT ( 'NONE', #298 ) ;
#214 = ORIENTED_EDGE ( 'NONE', *, *, #236, .F. ) ;
#215 = ORIENTED_EDGE ( 'NONE', *, *, #39, .F. ) ;
#216 = AXIS2_PLACEMENT_3D ( 'NONE', #5, #37, #228 ) ;
#217 = DIRECTION ( 'NONE',  ( 0.000000000000000000, 0.000000000000000000, 1.000000000000000000 ) ) ;
#218 = EDGE_CURVE ( 'NONE', #262, #72, #300, .T. ) ;
#219 = ORIENTED_EDGE ( 'NONE', *, *, #256, .T. ) ;
#220 = PLANE ( 'NONE',  #54 ) ;
#221 = CARTESIAN_POINT ( 'NONE',  ( -6.000000000000000888, 0.000000000000000000, 107.0000000000000142 ) ) ;
#222 = ADVANCED_FACE ( 'NONE', ( #81 ), #8, .T. ) ;
#223 = AXIS2_PLACEMENT_3D ( 'NONE', #280, #293, #83 ) ;
#224 = APPROVAL_DATE_TIME ( #230, #275 ) ;
#225 = LOCAL_TIME ( 11, 47, 26.00000000000000000, #132 ) ;
#226 = DIRECTION ( 'NONE',  ( 0.000000000000000000, 0.000000000000000000, 1.000000000000000000 ) ) ;
#227 = CARTESIAN_POINT ( 'NONE',  ( 0.000000000000000000, 0.000000000000000000, 0.000000000000000000 ) ) ;
#228 = DIRECTION ( 'NONE',  ( -1.000000000000000000, 0.000000000000000000, 0.000000000000000000 ) ) ;
#229 = DIRECTION ( 'NONE',  ( 0.000000000000000000, 0.000000000000000000, 1.000000000000000000 ) ) ;
#230 = DATE_AND_TIME ( #127, #129 ) ;
#231 = FACE_OUTER_BOUND ( 'NONE', #272, .T. ) ;
#232 = APPROVAL_DATE_TIME ( #40, #86 ) ;
#233 = AXIS2_PLACEMENT_3D ( 'NONE', #13, #73, #87 ) ;
#234 = CARTESIAN_POINT ( 'NONE',  ( 0.000000000000000000, 0.000000000000000000, 107.0000000000000142 ) ) ;
#235 =( NAMED_UNIT ( * ) PLANE_ANGLE_UNIT ( ) SI_UNIT ( $, .RADIAN. ) );
#236 = EDGE_CURVE ( 'NONE', #118, #93, #103, .T. ) ;
#237 = DATE_TIME_ROLE ( 'creation_date' ) ;
#238 = ORIENTED_EDGE ( 'NONE', *, *, #56, .T. ) ;
#239 = EDGE_CURVE ( 'NONE', #183, #213, #211, .T. ) ;
#240 = AXIS2_PLACEMENT_3D ( 'NONE', #176, #201, #180 ) ;
#241 = EDGE_LOOP ( 'NONE', ( #214, #306, #219, #166 ) ) ;
#242 = ADVANCED_FACE ( 'NONE', ( #12 ), #61, .T. ) ;
#243 = AXIS2_PLACEMENT_3D ( 'NONE', #172, #57, #151 ) ;
#244 = APPROVAL_PERSON_ORGANIZATION ( #304, #86, #71 ) ;
#245 = CYLINDRICAL_SURFACE ( 'NONE', #243, 9.000000000000000000 ) ;
#246 = FACE_OUTER_BOUND ( 'NONE', #263, .T. ) ;
#247 = DIRECTION ( 'NONE',  ( 1.000000000000000000, 0.000000000000000000, 0.000000000000000000 ) ) ;
#248 = CALENDAR_DATE ( 2022, 7, 7 ) ;
#249 = DIRECTION ( 'NONE',  ( 0.000000000000000000, 0.000000000000000000, 1.000000000000000000 ) ) ;
#250 = CARTESIAN_POINT ( 'NONE',  ( -9.000000000000000000, 0.000000000000000000, 7.000000000000000000 ) ) ;
#251 = VECTOR ( 'NONE', #254, 1000.000000000000000 ) ;
#252 = CARTESIAN_POINT ( 'NONE',  ( -9.000000000000000000, 0.000000000000000000, 7.000000000000000000 ) ) ;
#253 = ORIENTED_EDGE ( 'NONE', *, *, #307, .T. ) ;
#254 = DIRECTION ( 'NONE',  ( -0.000000000000000000, -0.000000000000000000, -1.000000000000000000 ) ) ;
#255 = UNCERTAINTY_MEASURE_WITH_UNIT (LENGTH_MEASURE( 1.000000000000000082E-05 ), #23, 'distance_accuracy_value', 'NONE');
#256 = EDGE_CURVE ( 'NONE', #74, #266, #155, .T. ) ;
#257 = CARTESIAN_POINT ( 'NONE',  ( -6.200000000000001066, 7.592810154713590821E-16, 6.999999999999999112 ) ) ;
#258 = APPROVAL_STATUS ( 'not_yet_approved' ) ;
#259 = CIRCLE ( 'NONE', #122, 6.200000000000001066 ) ;
#260 = SECURITY_CLASSIFICATION ( '', '', #292 ) ;
#261 = CALENDAR_DATE ( 2022, 7, 7 ) ;
#262 = VERTEX_POINT ( 'NONE', #206 ) ;
#263 = EDGE_LOOP ( 'NONE', ( #279, #195, #291, #82 ) ) ;
#264 = PRODUCT ( '9426', '9426', '', ( #114 ) ) ;
#265 =( NAMED_UNIT ( * ) SI_UNIT ( $, .STERADIAN. ) SOLID_ANGLE_UNIT ( ) );
#266 = VERTEX_POINT ( 'NONE', #161 ) ;
#267 = AXIS2_PLACEMENT_3D ( 'NONE', #80, #152, #247 ) ;
#268 = AXIS2_PLACEMENT_3D ( 'NONE', #302, #141, #85 ) ;
#269 = CC_DESIGN_DATE_AND_TIME_ASSIGNMENT ( #204, #107, ( #260 ) ) ;
#270 = APPROVAL_PERSON_ORGANIZATION ( #274, #275, #113 ) ;
#271 = CC_DESIGN_PERSON_AND_ORGANIZATION_ASSIGNMENT ( #210, #209, ( #135 ) ) ;
#272 = EDGE_LOOP ( 'NONE', ( #156, #190 ) ) ;
#273 = CARTESIAN_POINT ( 'NONE',  ( 0.000000000000000000, 0.000000000000000000, 7.000000000000000000 ) ) ;
#274 = PERSON_AND_ORGANIZATION ( #169, #29 ) ;
#275 = APPROVAL ( #64, 'NEURÈENÝ' ) ;
#276 = CARTESIAN_POINT ( 'NONE',  ( 6.200000000000001066, 0.000000000000000000, 7.199999999999998401 ) ) ;
#277 = DIRECTION ( 'NONE',  ( 0.000000000000000000, 0.000000000000000000, 1.000000000000000000 ) ) ;
#278 = DIRECTION ( 'NONE',  ( -0.000000000000000000, -0.000000000000000000, -1.000000000000000000 ) ) ;
#279 = ORIENTED_EDGE ( 'NONE', *, *, #167, .F. ) ;
#280 = CARTESIAN_POINT ( 'NONE',  ( 0.000000000000000000, 0.000000000000000000, 0.000000000000000000 ) ) ;
#281 = DIRECTION ( 'NONE',  ( 1.000000000000000000, 0.000000000000000000, -0.000000000000000000 ) ) ;
#282 = PERSON_AND_ORGANIZATION ( #169, #29 ) ;
#283 = APPROVAL_STATUS ( 'not_yet_approved' ) ;
#284 = ORIENTED_EDGE ( 'NONE', *, *, #119, .F. ) ;
#285 = AXIS2_PLACEMENT_3D ( 'NONE', #115, #67, #159 ) ;
#286 = ORIENTED_EDGE ( 'NONE', *, *, #189, .F. ) ;
#287 = CC_DESIGN_PERSON_AND_ORGANIZATION_ASSIGNMENT ( #36, #173, ( #185 ) ) ;
#288 = APPLICATION_CONTEXT ( 'configuration controlled 3d designs of mechanical parts and assemblies' ) ;
#289 = EDGE_CURVE ( 'NONE', #262, #62, #27, .T. ) ;
#290 = FACE_OUTER_BOUND ( 'NONE', #241, .T. ) ;
#291 = ORIENTED_EDGE ( 'NONE', *, *, #218, .T. ) ;
#292 = SECURITY_CLASSIFICATION_LEVEL ( 'unclassified' ) ;
#293 = DIRECTION ( 'NONE',  ( 0.000000000000000000, 0.000000000000000000, 1.000000000000000000 ) ) ;
#294 = EDGE_LOOP ( 'NONE', ( #24, #163, #238, #186 ) ) ;
#295 = CARTESIAN_POINT ( 'NONE',  ( 0.000000000000000000, 0.000000000000000000, 107.0000000000000142 ) ) ;
#296 = EDGE_LOOP ( 'NONE', ( #117, #102, #200, #51 ) ) ;
#297 = SHAPE_DEFINITION_REPRESENTATION ( #65, #17 ) ;
#298 = CARTESIAN_POINT ( 'NONE',  ( 6.000000000000000888, 7.347880794884120722E-16, 107.0000000000000142 ) ) ;
#299 = ADVANCED_FACE ( 'NONE', ( #184 ), #150, .F. ) ;
#300 = CIRCLE ( 'NONE', #75, 0.1999999999999996503 ) ;
#301 = DIRECTION ( 'NONE',  ( 1.000000000000000000, 0.000000000000000000, 0.000000000000000000 ) ) ;
#302 = CARTESIAN_POINT ( 'NONE',  ( 0.000000000000000000, 0.000000000000000000, 0.000000000000000000 ) ) ;
#303 = CARTESIAN_POINT ( 'NONE',  ( 6.000000000000000888, 7.347880794884120722E-16, 107.0000000000000142 ) ) ;
#304 = PERSON_AND_ORGANIZATION ( #169, #29 ) ;
#305 = AXIS2_PLACEMENT_3D ( 'NONE', #84, #249, #31 ) ;
#306 = ORIENTED_EDGE ( 'NONE', *, *, #94, .F. ) ;
#307 = EDGE_CURVE ( 'NONE', #213, #262, #165, .T. ) ;
ENDSEC;
END-ISO-10303-21;
