ISO-10303-21;
HEADER;
FILE_DESCRIPTION (( 'STEP AP203' ),
    '1' );
FILE_NAME ('dbb2.STEP',
    '2022-07-07T10:00:40',
    ( '' ),
    ( '' ),
    'SwSTEP 2.0',
    'SolidWorks 2019',
    '' );
FILE_SCHEMA (( 'CONFIG_CONTROL_DESIGN' ));
ENDSEC;

DATA;
#1 = CARTESIAN_POINT ( 'NONE',  ( 0.000000000000000000, 0.000000000000000000, 5.199999999999982414 ) ) ;
#2 = AXIS2_PLACEMENT_3D ( 'NONE', #181, #250, #204 ) ;
#3 = MECHANICAL_CONTEXT ( 'NONE', #45, 'mechanical' ) ;
#4 = EDGE_CURVE ( 'NONE', #218, #153, #100, .T. ) ;
#5 = CARTESIAN_POINT ( 'NONE',  ( 0.000000000000000000, 0.000000000000000000, 405.0000000000000000 ) ) ;
#6 = APPROVAL_DATE_TIME ( #15, #58 ) ;
#7 = COORDINATED_UNIVERSAL_TIME_OFFSET ( 1, 0, .AHEAD. ) ;
#8 = CLOSED_SHELL ( 'NONE', ( #166, #251, #268, #151, #70, #178, #86, #29, #74 ) ) ;
#9 = ORIENTED_EDGE ( 'NONE', *, *, #4, .T. ) ;
#10 = DIRECTION ( 'NONE',  ( 0.000000000000000000, 0.000000000000000000, 1.000000000000000000 ) ) ;
#11 = FACE_OUTER_BOUND ( 'NONE', #85, .T. ) ;
#12 = ORIENTED_EDGE ( 'NONE', *, *, #174, .T. ) ;
#13 = AXIS2_PLACEMENT_3D ( 'NONE', #297, #298, #184 ) ;
#14 = ORIENTED_EDGE ( 'NONE', *, *, #81, .T. ) ;
#15 = DATE_AND_TIME ( #64, #201 ) ;
#16 = DIRECTION ( 'NONE',  ( 1.000000000000000000, 0.000000000000000000, 0.000000000000000000 ) ) ;
#17 = DIRECTION ( 'NONE',  ( 1.000000000000000000, 0.000000000000000000, 0.000000000000000000 ) ) ;
#18 = APPROVAL_PERSON_ORGANIZATION ( #102, #82, #26 ) ;
#19 = CARTESIAN_POINT ( 'NONE',  ( -7.000000000000000000, 0.000000000000000000, 5.000000000000000000 ) ) ;
#20 = DIRECTION ( 'NONE',  ( 1.000000000000000000, 0.000000000000000000, 0.000000000000000000 ) ) ;
#21 = DIRECTION ( 'NONE',  ( -0.000000000000000000, -0.000000000000000000, -1.000000000000000000 ) ) ;
#22 = VECTOR ( 'NONE', #21, 1000.000000000000000 ) ;
#23 = DIRECTION ( 'NONE',  ( -1.000000000000000000, 0.000000000000000000, 0.000000000000000000 ) ) ;
#24 = CIRCLE ( 'NONE', #197, 4.099999999999999645 ) ;
#25 = DATE_AND_TIME ( #267, #273 ) ;
#26 = APPROVAL_ROLE ( '' ) ;
#27 = CC_DESIGN_PERSON_AND_ORGANIZATION_ASSIGNMENT ( #127, #116, ( #291 ) ) ;
#28 = AXIS2_PLACEMENT_3D ( 'NONE', #307, #98, #283 ) ;
#29 = ADVANCED_FACE ( 'NONE', ( #227 ), #179, .T. ) ;
#30 = ORIENTED_EDGE ( 'NONE', *, *, #232, .F. ) ;
#31 = ORIENTED_EDGE ( 'NONE', *, *, #168, .T. ) ;
#32 = CARTESIAN_POINT ( 'NONE',  ( 0.000000000000000000, 0.000000000000000000, 5.199999999999982414 ) ) ;
#33 = PERSON ( 'NEURÈENÝ', 'NEURÈENÝ', 'NEURÈENÝ', ('NEURÈENÝ'), ('NEURÈENÝ'), ('NEURÈENÝ') ) ;
#34 = DIRECTION ( 'NONE',  ( 0.000000000000000000, 0.000000000000000000, 1.000000000000000000 ) ) ;
#35 = DIRECTION ( 'NONE',  ( 0.000000000000000000, 0.000000000000000000, 1.000000000000000000 ) ) ;
#36 = VECTOR ( 'NONE', #170, 1000.000000000000000 ) ;
#37 = PERSON_AND_ORGANIZATION ( #33, #53 ) ;
#38 = CARTESIAN_POINT ( 'NONE',  ( 0.000000000000000000, 0.000000000000000000, 5.000000000000000000 ) ) ;
#39 = APPROVAL_STATUS ( 'not_yet_approved' ) ;
#40 = DIRECTION ( 'NONE',  ( 0.000000000000000000, 0.000000000000000000, 1.000000000000000000 ) ) ;
#41 = PERSON_AND_ORGANIZATION ( #33, #53 ) ;
#42 = DIRECTION ( 'NONE',  ( 0.000000000000000000, 0.000000000000000000, 1.000000000000000000 ) ) ;
#43 = AXIS2_PLACEMENT_3D ( 'NONE', #185, #280, #164 ) ;
#44 = EDGE_CURVE ( 'NONE', #128, #289, #71, .T. ) ;
#45 = APPLICATION_CONTEXT ( 'configuration controlled 3d designs of mechanical parts and assemblies' ) ;
#46 = AXIS2_PLACEMENT_3D ( 'NONE', #159, #34, #255 ) ;
#47 = FACE_OUTER_BOUND ( 'NONE', #245, .T. ) ;
#48 = CARTESIAN_POINT ( 'NONE',  ( -4.299999999999998934, 5.265981236333617484E-16, 5.199999999999982414 ) ) ;
#49 = VECTOR ( 'NONE', #209, 1000.000000000000000 ) ;
#50 = EDGE_CURVE ( 'NONE', #153, #218, #88, .T. ) ;
#51 = CARTESIAN_POINT ( 'NONE',  ( -4.099999999999999645, 0.000000000000000000, 5.199999999999982414 ) ) ;
#52 = PERSON_AND_ORGANIZATION ( #33, #53 ) ;
#53 = ORGANIZATION ( 'NEURÈENÝ', 'NEURÈENÝ', '' ) ;
#54 = VERTEX_POINT ( 'NONE', #225 ) ;
#55 = ORIENTED_EDGE ( 'NONE', *, *, #4, .F. ) ;
#56 = AXIS2_PLACEMENT_3D ( 'NONE', #258, #145, #20 ) ;
#57 = PLANE ( 'NONE',  #202 ) ;
#58 = APPROVAL ( #288, 'NEURÈENÝ' ) ;
#59 = ORIENTED_EDGE ( 'NONE', *, *, #44, .T. ) ;
#60 = DIRECTION ( 'NONE',  ( 0.000000000000000000, 0.000000000000000000, 1.000000000000000000 ) ) ;
#61 = EDGE_CURVE ( 'NONE', #54, #272, #167, .T. ) ;
#62 = CC_DESIGN_APPROVAL ( #82, ( #150 ) ) ;
#63 = FACE_OUTER_BOUND ( 'NONE', #133, .T. ) ;
#64 = CALENDAR_DATE ( 2022, 7, 7 ) ;
#65 = CARTESIAN_POINT ( 'NONE',  ( 0.000000000000000000, 0.000000000000000000, 0.000000000000000000 ) ) ;
#66 = DATE_AND_TIME ( #230, #265 ) ;
#67 = PLANE ( 'NONE',  #253 ) ;
#68 = CARTESIAN_POINT ( 'NONE',  ( -4.299999999999998934, 5.265981236333617484E-16, 4.999999999999991118 ) ) ;
#69 = PRODUCT_DEFINITION_SHAPE ( 'NONE', 'NONE',  #150 ) ;
#70 = ADVANCED_FACE ( 'NONE', ( #163, #274 ), #57, .T. ) ;
#71 = CIRCLE ( 'NONE', #219, 4.099999999999999645 ) ;
#72 = CYLINDRICAL_SURFACE ( 'NONE', #28, 7.000000000000000000 ) ;
#73 = DIRECTION ( 'NONE',  ( 1.000000000000000000, 0.000000000000000000, 0.000000000000000000 ) ) ;
#74 = ADVANCED_FACE ( 'NONE', ( #63 ), #99, .F. ) ;
#75 = LINE ( 'NONE', #285, #49 ) ;
#76 = AXIS2_PLACEMENT_3D ( 'NONE', #48, #186, #281 ) ;
#77 = CALENDAR_DATE ( 2022, 7, 7 ) ;
#78 = UNCERTAINTY_MEASURE_WITH_UNIT (LENGTH_MEASURE( 1.000000000000000082E-05 ), #242, 'distance_accuracy_value', 'NONE');
#79 = ORIENTED_EDGE ( 'NONE', *, *, #232, .T. ) ;
#80 = PERSON_AND_ORGANIZATION ( #33, #53 ) ;
#81 = EDGE_CURVE ( 'NONE', #289, #140, #113, .T. ) ;
#82 = APPROVAL ( #124, 'NEURÈENÝ' ) ;
#83 = ADVANCED_BREP_SHAPE_REPRESENTATION ( 'dbb2', ( #240, #270 ), #196 ) ;
#84 = AXIS2_PLACEMENT_3D ( 'NONE', #121, #144, #23 ) ;
#85 = EDGE_LOOP ( 'NONE', ( #89, #292, #79, #59 ) ) ;
#86 = ADVANCED_FACE ( 'NONE', ( #11 ), #295, .T. ) ;
#87 = EDGE_LOOP ( 'NONE', ( #278, #112 ) ) ;
#88 = CIRCLE ( 'NONE', #260, 7.000000000000000000 ) ;
#89 = ORIENTED_EDGE ( 'NONE', *, *, #275, .F. ) ;
#90 = DIRECTION ( 'NONE',  ( 0.000000000000000000, 0.000000000000000000, 1.000000000000000000 ) ) ;
#91 = DATE_AND_TIME ( #77, #132 ) ;
#92 = LOCAL_TIME ( 12, 0, 40.00000000000000000, #215 ) ;
#93 = ORIENTED_EDGE ( 'NONE', *, *, #108, .T. ) ;
#94 = APPLICATION_PROTOCOL_DEFINITION ( 'international standard', 'config_control_design', 1994, #45 ) ;
#95 = CYLINDRICAL_SURFACE ( 'NONE', #43, 4.099999999999999645 ) ;
#96 = DIRECTION ( 'NONE',  ( 0.000000000000000000, 0.000000000000000000, 1.000000000000000000 ) ) ;
#97 = PRODUCT_RELATED_PRODUCT_CATEGORY ( 'detail', '', ( #172 ) ) ;
#98 = DIRECTION ( 'NONE',  ( -0.000000000000000000, -0.000000000000000000, -1.000000000000000000 ) ) ;
#99 = TOROIDAL_SURFACE ( 'NONE', #243, 4.299999999999998934, 0.2000000000000000111 ) ;
#100 = CIRCLE ( 'NONE', #152, 7.000000000000000000 ) ;
#101 = DIRECTION ( 'NONE',  ( -0.000000000000000000, -0.000000000000000000, -1.000000000000000000 ) ) ;
#102 = PERSON_AND_ORGANIZATION ( #33, #53 ) ;
#103 = CARTESIAN_POINT ( 'NONE',  ( 4.299999999999998934, 0.000000000000000000, 4.999999999999991118 ) ) ;
#104 = APPROVAL_ROLE ( '' ) ;
#105 = ORIENTED_EDGE ( 'NONE', *, *, #168, .F. ) ;
#106 = SECURITY_CLASSIFICATION ( '', '', #217 ) ;
#107 = DATE_TIME_ROLE ( 'creation_date' ) ;
#108 = EDGE_CURVE ( 'NONE', #156, #195, #138, .T. ) ;
#109 = EDGE_LOOP ( 'NONE', ( #293, #31, #221, #111 ) ) ;
#110 = ORIENTED_EDGE ( 'NONE', *, *, #50, .T. ) ;
#111 = ORIENTED_EDGE ( 'NONE', *, *, #81, .F. ) ;
#112 = ORIENTED_EDGE ( 'NONE', *, *, #61, .T. ) ;
#113 = CIRCLE ( 'NONE', #271, 0.1999999999999996503 ) ;
#114 = DIRECTION ( 'NONE',  ( 1.000000000000000000, 0.000000000000000000, 0.000000000000000000 ) ) ;
#115 = EDGE_CURVE ( 'NONE', #156, #153, #147, .T. ) ;
#116 = PERSON_AND_ORGANIZATION_ROLE ( 'creator' ) ;
#117 = DIRECTION ( 'NONE',  ( 0.000000000000000000, 0.000000000000000000, 1.000000000000000000 ) ) ;
#118 = CIRCLE ( 'NONE', #303, 4.299999999999998934 ) ;
#119 = CARTESIAN_POINT ( 'NONE',  ( 0.000000000000000000, 0.000000000000000000, 5.000000000000000000 ) ) ;
#120 = CC_DESIGN_DATE_AND_TIME_ASSIGNMENT ( #66, #107, ( #150 ) ) ;
#121 = CARTESIAN_POINT ( 'NONE',  ( 0.000000000000000000, 0.000000000000000000, 5.000000000000000000 ) ) ;
#122 = CARTESIAN_POINT ( 'NONE',  ( 4.099999999999999645, 5.021051876504147385E-16, 5.199999999999982414 ) ) ;
#123 = AXIS2_PLACEMENT_3D ( 'NONE', #171, #96, #261 ) ;
#124 = APPROVAL_STATUS ( 'not_yet_approved' ) ;
#125 = CARTESIAN_POINT ( 'NONE',  ( -7.000000000000000000, 0.000000000000000000, 5.000000000000000000 ) ) ;
#126 = PERSON_AND_ORGANIZATION_ROLE ( 'design_owner' ) ;
#127 = PERSON_AND_ORGANIZATION ( #33, #53 ) ;
#128 = VERTEX_POINT ( 'NONE', #51 ) ;
#129 = CIRCLE ( 'NONE', #193, 4.299999999999998934 ) ;
#130 = APPROVAL ( #39, 'NEURÈENÝ' ) ;
#131 = ORIENTED_EDGE ( 'NONE', *, *, #61, .F. ) ;
#132 = LOCAL_TIME ( 12, 0, 40.00000000000000000, #192 ) ;
#133 = EDGE_LOOP ( 'NONE', ( #105, #216, #14, #220 ) ) ;
#134 = CARTESIAN_POINT ( 'NONE',  ( 0.000000000000000000, 0.000000000000000000, 5.000000000000000000 ) ) ;
#135 = EDGE_CURVE ( 'NONE', #272, #54, #24, .T. ) ;
#136 = EDGE_LOOP ( 'NONE', ( #149, #55 ) ) ;
#137 = CARTESIAN_POINT ( 'NONE',  ( 4.299999999999998934, 0.000000000000000000, 5.199999999999982414 ) ) ;
#138 = CIRCLE ( 'NONE', #177, 7.000000000000000000 ) ;
#139 = PERSON_AND_ORGANIZATION ( #33, #53 ) ;
#140 = VERTEX_POINT ( 'NONE', #103 ) ;
#141 = DIRECTION ( 'NONE',  ( 1.000000000000000000, 0.000000000000000000, 0.000000000000000000 ) ) ;
#142 = CYLINDRICAL_SURFACE ( 'NONE', #84, 7.000000000000000000 ) ;
#143 = APPROVAL_ROLE ( '' ) ;
#144 = DIRECTION ( 'NONE',  ( -0.000000000000000000, -0.000000000000000000, -1.000000000000000000 ) ) ;
#145 = DIRECTION ( 'NONE',  ( 0.000000000000000000, 0.000000000000000000, 1.000000000000000000 ) ) ;
#146 = LINE ( 'NONE', #237, #22 ) ;
#147 = LINE ( 'NONE', #19, #36 ) ;
#148 = COORDINATED_UNIVERSAL_TIME_OFFSET ( 1, 0, .AHEAD. ) ;
#149 = ORIENTED_EDGE ( 'NONE', *, *, #50, .F. ) ;
#150 = PRODUCT_DEFINITION ( 'NEZNÁMÝ', '', #291, #244 ) ;
#151 = ADVANCED_FACE ( 'NONE', ( #239 ), #142, .T. ) ;
#152 = AXIS2_PLACEMENT_3D ( 'NONE', #277, #161, #158 ) ;
#153 = VERTEX_POINT ( 'NONE', #236 ) ;
#154 = ORIENTED_EDGE ( 'NONE', *, *, #189, .T. ) ;
#155 = EDGE_LOOP ( 'NONE', ( #199, #198, #9, #301 ) ) ;
#156 = VERTEX_POINT ( 'NONE', #125 ) ;
#157 = EDGE_CURVE ( 'NONE', #195, #218, #75, .T. ) ;
#158 = DIRECTION ( 'NONE',  ( 1.000000000000000000, 0.000000000000000000, 0.000000000000000000 ) ) ;
#159 = CARTESIAN_POINT ( 'NONE',  ( 0.000000000000000000, 0.000000000000000000, 405.0000000000000000 ) ) ;
#160 = CIRCLE ( 'NONE', #76, 0.1999999999999996503 ) ;
#161 = DIRECTION ( 'NONE',  ( 0.000000000000000000, 0.000000000000000000, 1.000000000000000000 ) ) ;
#162 =( NAMED_UNIT ( * ) SI_UNIT ( $, .STERADIAN. ) SOLID_ANGLE_UNIT ( ) );
#163 = FACE_BOUND ( 'NONE', #200, .T. ) ;
#164 = DIRECTION ( 'NONE',  ( -1.000000000000000000, 0.000000000000000000, 0.000000000000000000 ) ) ;
#165 = FACE_OUTER_BOUND ( 'NONE', #109, .T. ) ;
#166 = ADVANCED_FACE ( 'NONE', ( #165 ), #246, .F. ) ;
#167 = CIRCLE ( 'NONE', #13, 4.099999999999999645 ) ;
#168 = EDGE_CURVE ( 'NONE', #128, #249, #160, .T. ) ;
#169 = CARTESIAN_POINT ( 'NONE',  ( -4.099999999999999645, 0.000000000000000000, 405.0000000000000000 ) ) ;
#170 = DIRECTION ( 'NONE',  ( -0.000000000000000000, -0.000000000000000000, -1.000000000000000000 ) ) ;
#171 = CARTESIAN_POINT ( 'NONE',  ( 0.000000000000000000, 0.000000000000000000, 5.199999999999982414 ) ) ;
#172 = PRODUCT ( 'dbb2', 'dbb2', '', ( #3 ) ) ;
#173 = APPROVAL_DATE_TIME ( #91, #130 ) ;
#174 = EDGE_CURVE ( 'NONE', #140, #249, #118, .T. ) ;
#175 = ORIENTED_EDGE ( 'NONE', *, *, #115, .T. ) ;
#176 = CC_DESIGN_DATE_AND_TIME_ASSIGNMENT ( #25, #300, ( #106 ) ) ;
#177 = AXIS2_PLACEMENT_3D ( 'NONE', #38, #117, #206 ) ;
#178 = ADVANCED_FACE ( 'NONE', ( #259 ), #67, .F. ) ;
#179 = PLANE ( 'NONE',  #46 ) ;
#180 = CC_DESIGN_APPROVAL ( #58, ( #291 ) ) ;
#181 = CARTESIAN_POINT ( 'NONE',  ( 0.000000000000000000, 0.000000000000000000, 405.0000000000000000 ) ) ;
#182 = DIRECTION ( 'NONE',  ( 1.000000000000000000, 0.000000000000000000, -0.000000000000000000 ) ) ;
#183 = ORIENTED_EDGE ( 'NONE', *, *, #108, .F. ) ;
#184 = DIRECTION ( 'NONE',  ( 1.000000000000000000, 0.000000000000000000, 0.000000000000000000 ) ) ;
#185 = CARTESIAN_POINT ( 'NONE',  ( 0.000000000000000000, 0.000000000000000000, 405.0000000000000000 ) ) ;
#186 = DIRECTION ( 'NONE',  ( 1.224646799147353207E-16, 1.000000000000000000, -0.000000000000000000 ) ) ;
#187 = CARTESIAN_POINT ( 'NONE',  ( 7.000000000000000000, 8.572527594031473190E-16, 5.000000000000000000 ) ) ;
#188 = DIRECTION ( 'NONE',  ( 0.000000000000000000, 0.000000000000000000, 1.000000000000000000 ) ) ;
#189 = EDGE_CURVE ( 'NONE', #249, #140, #129, .T. ) ;
#190 = PERSON_AND_ORGANIZATION_ROLE ( 'creator' ) ;
#191 = CARTESIAN_POINT ( 'NONE',  ( 0.000000000000000000, 0.000000000000000000, 0.000000000000000000 ) ) ;
#192 = COORDINATED_UNIVERSAL_TIME_OFFSET ( 1, 0, .AHEAD. ) ;
#193 = AXIS2_PLACEMENT_3D ( 'NONE', #231, #211, #235 ) ;
#194 = EDGE_LOOP ( 'NONE', ( #93, #269 ) ) ;
#195 = VERTEX_POINT ( 'NONE', #187 ) ;
#196 =( GEOMETRIC_REPRESENTATION_CONTEXT ( 3 ) GLOBAL_UNCERTAINTY_ASSIGNED_CONTEXT ( ( #78 ) ) GLOBAL_UNIT_ASSIGNED_CONTEXT ( ( #242, #266, #162 ) ) REPRESENTATION_CONTEXT ( 'NONE', 'WORKASPACE' ) );
#197 = AXIS2_PLACEMENT_3D ( 'NONE', #5, #42, #213 ) ;
#198 = ORIENTED_EDGE ( 'NONE', *, *, #157, .T. ) ;
#199 = ORIENTED_EDGE ( 'NONE', *, *, #262, .F. ) ;
#200 = EDGE_LOOP ( 'NONE', ( #12, #154 ) ) ;
#201 = LOCAL_TIME ( 12, 0, 40.00000000000000000, #286 ) ;
#202 = AXIS2_PLACEMENT_3D ( 'NONE', #134, #10, #182 ) ;
#203 = DIRECTION ( 'NONE',  ( 1.000000000000000000, 0.000000000000000000, 0.000000000000000000 ) ) ;
#204 = DIRECTION ( 'NONE',  ( -1.000000000000000000, 0.000000000000000000, 0.000000000000000000 ) ) ;
#205 = APPROVAL_DATE_TIME ( #254, #82 ) ;
#206 = DIRECTION ( 'NONE',  ( 1.000000000000000000, 0.000000000000000000, 0.000000000000000000 ) ) ;
#207 = APPROVAL_PERSON_ORGANIZATION ( #80, #130, #104 ) ;
#208 = CALENDAR_DATE ( 2022, 7, 7 ) ;
#209 = DIRECTION ( 'NONE',  ( -0.000000000000000000, -0.000000000000000000, -1.000000000000000000 ) ) ;
#210 = APPLICATION_CONTEXT ( 'configuration controlled 3d designs of mechanical parts and assemblies' ) ;
#211 = DIRECTION ( 'NONE',  ( -0.000000000000000000, -0.000000000000000000, -1.000000000000000000 ) ) ;
#212 = FACE_OUTER_BOUND ( 'NONE', #155, .T. ) ;
#213 = DIRECTION ( 'NONE',  ( 1.000000000000000000, 0.000000000000000000, 0.000000000000000000 ) ) ;
#214 = CARTESIAN_POINT ( 'NONE',  ( 7.000000000000000000, 8.572527594031473190E-16, 0.000000000000000000 ) ) ;
#215 = COORDINATED_UNIVERSAL_TIME_OFFSET ( 1, 0, .AHEAD. ) ;
#216 = ORIENTED_EDGE ( 'NONE', *, *, #299, .F. ) ;
#217 = SECURITY_CLASSIFICATION_LEVEL ( 'unclassified' ) ;
#218 = VERTEX_POINT ( 'NONE', #214 ) ;
#219 = AXIS2_PLACEMENT_3D ( 'NONE', #32, #90, #114 ) ;
#220 = ORIENTED_EDGE ( 'NONE', *, *, #189, .F. ) ;
#221 = ORIENTED_EDGE ( 'NONE', *, *, #174, .F. ) ;
#222 = CC_DESIGN_APPROVAL ( #130, ( #106 ) ) ;
#223 = ORIENTED_EDGE ( 'NONE', *, *, #299, .T. ) ;
#224 = DIRECTION ( 'NONE',  ( 0.000000000000000000, -1.000000000000000000, 0.000000000000000000 ) ) ;
#225 = CARTESIAN_POINT ( 'NONE',  ( 4.099999999999999645, 5.021051876504147385E-16, 405.0000000000000000 ) ) ;
#226 = CC_DESIGN_SECURITY_CLASSIFICATION ( #106, ( #291 ) ) ;
#227 = FACE_OUTER_BOUND ( 'NONE', #87, .T. ) ;
#228 = CC_DESIGN_PERSON_AND_ORGANIZATION_ASSIGNMENT ( #52, #290, ( #106 ) ) ;
#229 = ORIENTED_EDGE ( 'NONE', *, *, #157, .F. ) ;
#230 = CALENDAR_DATE ( 2022, 7, 7 ) ;
#231 = CARTESIAN_POINT ( 'NONE',  ( 0.000000000000000000, 0.000000000000000000, 5.000000000000000000 ) ) ;
#232 = EDGE_CURVE ( 'NONE', #272, #128, #306, .T. ) ;
#233 = CIRCLE ( 'NONE', #302, 4.099999999999999645 ) ;
#234 = SHAPE_DEFINITION_REPRESENTATION ( #69, #83 ) ;
#235 = DIRECTION ( 'NONE',  ( 1.000000000000000000, 0.000000000000000000, 0.000000000000000000 ) ) ;
#236 = CARTESIAN_POINT ( 'NONE',  ( -7.000000000000000000, 0.000000000000000000, 0.000000000000000000 ) ) ;
#237 = CARTESIAN_POINT ( 'NONE',  ( 4.099999999999999645, 5.021051876504147385E-16, 405.0000000000000000 ) ) ;
#238 = APPROVAL_PERSON_ORGANIZATION ( #41, #58, #143 ) ;
#239 = FACE_OUTER_BOUND ( 'NONE', #247, .T. ) ;
#240 = MANIFOLD_SOLID_BREP ( 'Zaoblit1', #8 ) ;
#241 = APPLICATION_PROTOCOL_DEFINITION ( 'international standard', 'config_control_design', 1994, #210 ) ;
#242 =( LENGTH_UNIT ( ) NAMED_UNIT ( * ) SI_UNIT ( .MILLI., .METRE. ) );
#243 = AXIS2_PLACEMENT_3D ( 'NONE', #257, #60, #16 ) ;
#244 = DESIGN_CONTEXT ( 'detailed design', #210, 'design' ) ;
#245 = EDGE_LOOP ( 'NONE', ( #131, #252, #223, #30 ) ) ;
#246 = TOROIDAL_SURFACE ( 'NONE', #123, 4.299999999999998934, 0.2000000000000000111 ) ;
#247 = EDGE_LOOP ( 'NONE', ( #229, #183, #175, #110 ) ) ;
#248 = CC_DESIGN_PERSON_AND_ORGANIZATION_ASSIGNMENT ( #256, #304, ( #291 ) ) ;
#249 = VERTEX_POINT ( 'NONE', #68 ) ;
#250 = DIRECTION ( 'NONE',  ( -0.000000000000000000, -0.000000000000000000, -1.000000000000000000 ) ) ;
#251 = ADVANCED_FACE ( 'NONE', ( #47 ), #95, .T. ) ;
#252 = ORIENTED_EDGE ( 'NONE', *, *, #275, .T. ) ;
#253 = AXIS2_PLACEMENT_3D ( 'NONE', #191, #40, #263 ) ;
#254 = DATE_AND_TIME ( #208, #92 ) ;
#255 = DIRECTION ( 'NONE',  ( 1.000000000000000000, 0.000000000000000000, -0.000000000000000000 ) ) ;
#256 = PERSON_AND_ORGANIZATION ( #33, #53 ) ;
#257 = CARTESIAN_POINT ( 'NONE',  ( 0.000000000000000000, 0.000000000000000000, 5.199999999999982414 ) ) ;
#258 = CARTESIAN_POINT ( 'NONE',  ( 0.000000000000000000, 0.000000000000000000, 5.000000000000000000 ) ) ;
#259 = FACE_OUTER_BOUND ( 'NONE', #136, .T. ) ;
#260 = AXIS2_PLACEMENT_3D ( 'NONE', #65, #35, #203 ) ;
#261 = DIRECTION ( 'NONE',  ( 1.000000000000000000, 0.000000000000000000, 0.000000000000000000 ) ) ;
#262 = EDGE_CURVE ( 'NONE', #195, #156, #294, .T. ) ;
#263 = DIRECTION ( 'NONE',  ( 1.000000000000000000, 0.000000000000000000, -0.000000000000000000 ) ) ;
#264 = DIRECTION ( 'NONE',  ( 0.000000000000000000, 0.000000000000000000, 1.000000000000000000 ) ) ;
#265 = LOCAL_TIME ( 12, 0, 40.00000000000000000, #7 ) ;
#266 =( NAMED_UNIT ( * ) PLANE_ANGLE_UNIT ( ) SI_UNIT ( $, .RADIAN. ) );
#267 = CALENDAR_DATE ( 2022, 7, 7 ) ;
#268 = ADVANCED_FACE ( 'NONE', ( #212 ), #72, .T. ) ;
#269 = ORIENTED_EDGE ( 'NONE', *, *, #262, .T. ) ;
#270 = AXIS2_PLACEMENT_3D ( 'NONE', #279, #264, #141 ) ;
#271 = AXIS2_PLACEMENT_3D ( 'NONE', #137, #224, #276 ) ;
#272 = VERTEX_POINT ( 'NONE', #169 ) ;
#273 = LOCAL_TIME ( 12, 0, 40.00000000000000000, #148 ) ;
#274 = FACE_OUTER_BOUND ( 'NONE', #194, .T. ) ;
#275 = EDGE_CURVE ( 'NONE', #54, #289, #146, .T. ) ;
#276 = DIRECTION ( 'NONE',  ( 0.000000000000000000, 0.000000000000000000, -1.000000000000000000 ) ) ;
#277 = CARTESIAN_POINT ( 'NONE',  ( 0.000000000000000000, 0.000000000000000000, 0.000000000000000000 ) ) ;
#278 = ORIENTED_EDGE ( 'NONE', *, *, #135, .T. ) ;
#279 = CARTESIAN_POINT ( 'NONE',  ( 0.000000000000000000, 0.000000000000000000, 0.000000000000000000 ) ) ;
#280 = DIRECTION ( 'NONE',  ( -0.000000000000000000, -0.000000000000000000, -1.000000000000000000 ) ) ;
#281 = DIRECTION ( 'NONE',  ( -1.000000000000000000, 1.224646799147353454E-16, 0.000000000000000000 ) ) ;
#282 = VECTOR ( 'NONE', #305, 1000.000000000000000 ) ;
#283 = DIRECTION ( 'NONE',  ( -1.000000000000000000, 0.000000000000000000, 0.000000000000000000 ) ) ;
#284 = CC_DESIGN_PERSON_AND_ORGANIZATION_ASSIGNMENT ( #37, #126, ( #172 ) ) ;
#285 = CARTESIAN_POINT ( 'NONE',  ( 7.000000000000000000, 8.572527594031473190E-16, 5.000000000000000000 ) ) ;
#286 = COORDINATED_UNIVERSAL_TIME_OFFSET ( 1, 0, .AHEAD. ) ;
#287 = CARTESIAN_POINT ( 'NONE',  ( -4.099999999999999645, 0.000000000000000000, 405.0000000000000000 ) ) ;
#288 = APPROVAL_STATUS ( 'not_yet_approved' ) ;
#289 = VERTEX_POINT ( 'NONE', #122 ) ;
#290 = PERSON_AND_ORGANIZATION_ROLE ( 'classification_officer' ) ;
#291 = PRODUCT_DEFINITION_FORMATION_WITH_SPECIFIED_SOURCE ( 'LIBOVOLNÝ', '', #172, .NOT_KNOWN. ) ;
#292 = ORIENTED_EDGE ( 'NONE', *, *, #135, .F. ) ;
#293 = ORIENTED_EDGE ( 'NONE', *, *, #44, .F. ) ;
#294 = CIRCLE ( 'NONE', #56, 7.000000000000000000 ) ;
#295 = CYLINDRICAL_SURFACE ( 'NONE', #2, 4.099999999999999645 ) ;
#296 = CC_DESIGN_PERSON_AND_ORGANIZATION_ASSIGNMENT ( #139, #190, ( #150 ) ) ;
#297 = CARTESIAN_POINT ( 'NONE',  ( 0.000000000000000000, 0.000000000000000000, 405.0000000000000000 ) ) ;
#298 = DIRECTION ( 'NONE',  ( 0.000000000000000000, 0.000000000000000000, 1.000000000000000000 ) ) ;
#299 = EDGE_CURVE ( 'NONE', #289, #128, #233, .T. ) ;
#300 = DATE_TIME_ROLE ( 'classification_date' ) ;
#301 = ORIENTED_EDGE ( 'NONE', *, *, #115, .F. ) ;
#302 = AXIS2_PLACEMENT_3D ( 'NONE', #1, #188, #73 ) ;
#303 = AXIS2_PLACEMENT_3D ( 'NONE', #119, #101, #17 ) ;
#304 = PERSON_AND_ORGANIZATION_ROLE ( 'design_supplier' ) ;
#305 = DIRECTION ( 'NONE',  ( -0.000000000000000000, -0.000000000000000000, -1.000000000000000000 ) ) ;
#306 = LINE ( 'NONE', #287, #282 ) ;
#307 = CARTESIAN_POINT ( 'NONE',  ( 0.000000000000000000, 0.000000000000000000, 5.000000000000000000 ) ) ;
ENDSEC;
END-ISO-10303-21;
