ISO-10303-21;
HEADER;
FILE_DESCRIPTION (( 'STEP AP203' ),
    '1' );
FILE_NAME ('6a2f.STEP',
    '2023-02-12T11:27:28',
    ( '' ),
    ( '' ),
    'SwSTEP 2.0',
    'SolidWorks 2019',
    '' );
FILE_SCHEMA (( 'CONFIG_CONTROL_DESIGN' ));
ENDSEC;

DATA;
#1 = ORIENTED_EDGE ( 'NONE', *, *, #190, .T. ) ;
#2 = EDGE_CURVE ( 'NONE', #18, #93, #180, .T. ) ;
#3 = CARTESIAN_POINT ( 'NONE',  ( 8.000000000000000000, 9.797174393178825657E-16, 5.000000000000000000 ) ) ;
#4 = CIRCLE ( 'NONE', #188, 5.000000000000000888 ) ;
#5 = DIRECTION ( 'NONE',  ( -0.000000000000000000, -0.000000000000000000, -1.000000000000000000 ) ) ;
#6 = PRODUCT_RELATED_PRODUCT_CATEGORY ( 'detail', '', ( #158 ) ) ;
#7 = VERTEX_POINT ( 'NONE', #195 ) ;
#8 = DATE_AND_TIME ( #117, #167 ) ;
#9 = AXIS2_PLACEMENT_3D ( 'NONE', #193, #97, #101 ) ;
#10 = APPROVAL ( #226, 'NEURÈENÝ' ) ;
#11 = PERSON_AND_ORGANIZATION ( #191, #138 ) ;
#12 = APPROVAL_PERSON_ORGANIZATION ( #223, #10, #123 ) ;
#13 = ADVANCED_FACE ( 'NONE', ( #61, #108 ), #143, .T. ) ;
#14 = SECURITY_CLASSIFICATION ( '', '', #183 ) ;
#15 =( NAMED_UNIT ( * ) PLANE_ANGLE_UNIT ( ) SI_UNIT ( $, .RADIAN. ) );
#16 = CARTESIAN_POINT ( 'NONE',  ( -5.000000000000000888, 0.000000000000000000, 250.0000000000000000 ) ) ;
#17 = DATE_AND_TIME ( #37, #43 ) ;
#18 = VERTEX_POINT ( 'NONE', #233 ) ;
#19 = ORIENTED_EDGE ( 'NONE', *, *, #2, .T. ) ;
#20 = DIRECTION ( 'NONE',  ( 1.000000000000000000, 0.000000000000000000, 0.000000000000000000 ) ) ;
#21 = ORIENTED_EDGE ( 'NONE', *, *, #52, .F. ) ;
#22 = CALENDAR_DATE ( 2023, 12, 2 ) ;
#23 = APPLICATION_PROTOCOL_DEFINITION ( 'international standard', 'config_control_design', 1994, #122 ) ;
#24 = CARTESIAN_POINT ( 'NONE',  ( 0.000000000000000000, 0.000000000000000000, 5.000000000000000000 ) ) ;
#25 = LINE ( 'NONE', #44, #242 ) ;
#26 = COORDINATED_UNIVERSAL_TIME_OFFSET ( 1, 0, .AHEAD. ) ;
#27 = CC_DESIGN_PERSON_AND_ORGANIZATION_ASSIGNMENT ( #244, #186, ( #181 ) ) ;
#28 = CYLINDRICAL_SURFACE ( 'NONE', #48, 8.000000000000000000 ) ;
#29 = LINE ( 'NONE', #115, #114 ) ;
#30 = AXIS2_PLACEMENT_3D ( 'NONE', #240, #64, #92 ) ;
#31 = PERSON_AND_ORGANIZATION_ROLE ( 'classification_officer' ) ;
#32 = PERSON_AND_ORGANIZATION ( #191, #138 ) ;
#33 = PLANE ( 'NONE',  #79 ) ;
#34 = VERTEX_POINT ( 'NONE', #212 ) ;
#35 = DIRECTION ( 'NONE',  ( 1.000000000000000000, 0.000000000000000000, 0.000000000000000000 ) ) ;
#36 = CYLINDRICAL_SURFACE ( 'NONE', #213, 8.000000000000000000 ) ;
#37 = CALENDAR_DATE ( 2023, 12, 2 ) ;
#38 = ADVANCED_FACE ( 'NONE', ( #178 ), #36, .T. ) ;
#39 = AXIS2_PLACEMENT_3D ( 'NONE', #232, #246, #35 ) ;
#40 = EDGE_LOOP ( 'NONE', ( #150, #202 ) ) ;
#41 = CYLINDRICAL_SURFACE ( 'NONE', #128, 5.000000000000000888 ) ;
#42 = LINE ( 'NONE', #161, #78 ) ;
#43 = LOCAL_TIME ( 12, 27, 28.00000000000000000, #148 ) ;
#44 = CARTESIAN_POINT ( 'NONE',  ( -5.000000000000000888, 0.000000000000000000, 250.0000000000000000 ) ) ;
#45 = PERSON_AND_ORGANIZATION ( #191, #138 ) ;
#46 = CARTESIAN_POINT ( 'NONE',  ( 0.000000000000000000, 0.000000000000000000, 250.0000000000000000 ) ) ;
#47 = EDGE_CURVE ( 'NONE', #236, #89, #25, .T. ) ;
#48 = AXIS2_PLACEMENT_3D ( 'NONE', #199, #168, #152 ) ;
#49 = CARTESIAN_POINT ( 'NONE',  ( -5.000000000000000888, 0.000000000000000000, 5.000000000000000000 ) ) ;
#50 = DIRECTION ( 'NONE',  ( 1.000000000000000000, 0.000000000000000000, 0.000000000000000000 ) ) ;
#51 = DATE_AND_TIME ( #205, #54 ) ;
#52 = EDGE_CURVE ( 'NONE', #81, #18, #29, .T. ) ;
#53 = DIRECTION ( 'NONE',  ( 0.000000000000000000, 0.000000000000000000, 1.000000000000000000 ) ) ;
#54 = LOCAL_TIME ( 12, 27, 28.00000000000000000, #57 ) ;
#55 = LINE ( 'NONE', #208, #187 ) ;
#56 = APPLICATION_CONTEXT ( 'configuration controlled 3d designs of mechanical parts and assemblies' ) ;
#57 = COORDINATED_UNIVERSAL_TIME_OFFSET ( 1, 0, .AHEAD. ) ;
#58 = ORIENTED_EDGE ( 'NONE', *, *, #198, .T. ) ;
#59 = CC_DESIGN_PERSON_AND_ORGANIZATION_ASSIGNMENT ( #220, #222, ( #158 ) ) ;
#60 = ORIENTED_EDGE ( 'NONE', *, *, #147, .F. ) ;
#61 = FACE_BOUND ( 'NONE', #149, .T. ) ;
#62 = CIRCLE ( 'NONE', #30, 5.000000000000000888 ) ;
#63 = ORIENTED_EDGE ( 'NONE', *, *, #47, .T. ) ;
#64 = DIRECTION ( 'NONE',  ( 0.000000000000000000, 0.000000000000000000, 1.000000000000000000 ) ) ;
#65 = ORIENTED_EDGE ( 'NONE', *, *, #141, .F. ) ;
#66 = DIRECTION ( 'NONE',  ( -0.000000000000000000, -0.000000000000000000, -1.000000000000000000 ) ) ;
#67 = AXIS2_PLACEMENT_3D ( 'NONE', #106, #176, #131 ) ;
#68 = CARTESIAN_POINT ( 'NONE',  ( 0.000000000000000000, 0.000000000000000000, 250.0000000000000000 ) ) ;
#69 = DIRECTION ( 'NONE',  ( 1.000000000000000000, 0.000000000000000000, 0.000000000000000000 ) ) ;
#70 = ORIENTED_EDGE ( 'NONE', *, *, #147, .T. ) ;
#71 = LOCAL_TIME ( 12, 27, 28.00000000000000000, #75 ) ;
#72 = MECHANICAL_CONTEXT ( 'NONE', #122, 'mechanical' ) ;
#73 = PERSON_AND_ORGANIZATION_ROLE ( 'creator' ) ;
#74 = DIRECTION ( 'NONE',  ( 1.000000000000000000, 0.000000000000000000, 0.000000000000000000 ) ) ;
#75 = COORDINATED_UNIVERSAL_TIME_OFFSET ( 1, 0, .AHEAD. ) ;
#76 = APPROVAL_ROLE ( '' ) ;
#77 = CARTESIAN_POINT ( 'NONE',  ( 0.000000000000000000, 0.000000000000000000, 250.0000000000000000 ) ) ;
#78 = VECTOR ( 'NONE', #124, 1000.000000000000000 ) ;
#79 = AXIS2_PLACEMENT_3D ( 'NONE', #77, #228, #82 ) ;
#80 = EDGE_LOOP ( 'NONE', ( #100, #146, #58, #21 ) ) ;
#81 = VERTEX_POINT ( 'NONE', #166 ) ;
#82 = DIRECTION ( 'NONE',  ( 1.000000000000000000, 0.000000000000000000, -0.000000000000000000 ) ) ;
#83 = CARTESIAN_POINT ( 'NONE',  ( 0.000000000000000000, 0.000000000000000000, 5.000000000000000000 ) ) ;
#84 = CC_DESIGN_PERSON_AND_ORGANIZATION_ASSIGNMENT ( #32, #73, ( #181 ) ) ;
#85 = AXIS2_PLACEMENT_3D ( 'NONE', #46, #66, #151 ) ;
#86 = AXIS2_PLACEMENT_3D ( 'NONE', #203, #53, #139 ) ;
#87 = APPROVAL_DATE_TIME ( #177, #172 ) ;
#88 = VERTEX_POINT ( 'NONE', #3 ) ;
#89 = VERTEX_POINT ( 'NONE', #49 ) ;
#90 = DIRECTION ( 'NONE',  ( -0.000000000000000000, -0.000000000000000000, -1.000000000000000000 ) ) ;
#91 = APPROVAL_STATUS ( 'not_yet_approved' ) ;
#92 = DIRECTION ( 'NONE',  ( 1.000000000000000000, 0.000000000000000000, 0.000000000000000000 ) ) ;
#93 = VERTEX_POINT ( 'NONE', #235 ) ;
#94 = APPROVAL_DATE_TIME ( #8, #120 ) ;
#95 = PRODUCT_DEFINITION ( 'NEZNÁMÝ', '', #181, #125 ) ;
#96 =( GEOMETRIC_REPRESENTATION_CONTEXT ( 3 ) GLOBAL_UNCERTAINTY_ASSIGNED_CONTEXT ( ( #227 ) ) GLOBAL_UNIT_ASSIGNED_CONTEXT ( ( #189, #15, #144 ) ) REPRESENTATION_CONTEXT ( 'NONE', 'WORKASPACE' ) );
#97 = DIRECTION ( 'NONE',  ( 0.000000000000000000, 0.000000000000000000, 1.000000000000000000 ) ) ;
#98 = ADVANCED_FACE ( 'NONE', ( #239 ), #118, .T. ) ;
#99 = CARTESIAN_POINT ( 'NONE',  ( 0.000000000000000000, 0.000000000000000000, 250.0000000000000000 ) ) ;
#100 = ORIENTED_EDGE ( 'NONE', *, *, #211, .F. ) ;
#101 = DIRECTION ( 'NONE',  ( 1.000000000000000000, 0.000000000000000000, 0.000000000000000000 ) ) ;
#102 = CC_DESIGN_APPROVAL ( #172, ( #95 ) ) ;
#103 = DIRECTION ( 'NONE',  ( 0.000000000000000000, 0.000000000000000000, 1.000000000000000000 ) ) ;
#104 = ORIENTED_EDGE ( 'NONE', *, *, #214, .F. ) ;
#105 = DIRECTION ( 'NONE',  ( -0.000000000000000000, -0.000000000000000000, -1.000000000000000000 ) ) ;
#106 = CARTESIAN_POINT ( 'NONE',  ( 0.000000000000000000, 0.000000000000000000, 0.000000000000000000 ) ) ;
#107 = PERSON_AND_ORGANIZATION ( #191, #138 ) ;
#108 = FACE_OUTER_BOUND ( 'NONE', #119, .T. ) ;
#109 = APPROVAL_PERSON_ORGANIZATION ( #134, #172, #76 ) ;
#110 = CARTESIAN_POINT ( 'NONE',  ( 0.000000000000000000, 0.000000000000000000, 0.000000000000000000 ) ) ;
#111 = EDGE_LOOP ( 'NONE', ( #104, #231, #164, #19 ) ) ;
#112 = ADVANCED_FACE ( 'NONE', ( #133 ), #28, .T. ) ;
#113 = DIRECTION ( 'NONE',  ( -0.000000000000000000, -0.000000000000000000, -1.000000000000000000 ) ) ;
#114 = VECTOR ( 'NONE', #90, 1000.000000000000000 ) ;
#115 = CARTESIAN_POINT ( 'NONE',  ( -8.000000000000000000, 0.000000000000000000, 5.000000000000000000 ) ) ;
#116 = CC_DESIGN_SECURITY_CLASSIFICATION ( #14, ( #181 ) ) ;
#117 = CALENDAR_DATE ( 2023, 12, 2 ) ;
#118 = CYLINDRICAL_SURFACE ( 'NONE', #85, 5.000000000000000888 ) ;
#119 = EDGE_LOOP ( 'NONE', ( #1, #254 ) ) ;
#120 = APPROVAL ( #136, 'NEURÈENÝ' ) ;
#121 = APPROVAL_DATE_TIME ( #157, #10 ) ;
#122 = APPLICATION_CONTEXT ( 'configuration controlled 3d designs of mechanical parts and assemblies' ) ;
#123 = APPROVAL_ROLE ( '' ) ;
#124 = DIRECTION ( 'NONE',  ( -0.000000000000000000, -0.000000000000000000, -1.000000000000000000 ) ) ;
#125 = DESIGN_CONTEXT ( 'detailed design', #56, 'design' ) ;
#126 = CIRCLE ( 'NONE', #175, 5.000000000000000888 ) ;
#127 = CARTESIAN_POINT ( 'NONE',  ( 0.000000000000000000, 0.000000000000000000, 5.000000000000000000 ) ) ;
#128 = AXIS2_PLACEMENT_3D ( 'NONE', #99, #105, #253 ) ;
#129 = EDGE_LOOP ( 'NONE', ( #170, #179 ) ) ;
#130 = DIRECTION ( 'NONE',  ( 1.000000000000000000, 0.000000000000000000, 0.000000000000000000 ) ) ;
#131 = DIRECTION ( 'NONE',  ( 1.000000000000000000, 0.000000000000000000, 0.000000000000000000 ) ) ;
#132 = CC_DESIGN_DATE_AND_TIME_ASSIGNMENT ( #51, #174, ( #14 ) ) ;
#133 = FACE_OUTER_BOUND ( 'NONE', #80, .T. ) ;
#134 = PERSON_AND_ORGANIZATION ( #191, #138 ) ;
#135 = EDGE_CURVE ( 'NONE', #89, #7, #62, .T. ) ;
#136 = APPROVAL_STATUS ( 'not_yet_approved' ) ;
#137 = CARTESIAN_POINT ( 'NONE',  ( 0.000000000000000000, 0.000000000000000000, 5.000000000000000000 ) ) ;
#138 = ORGANIZATION ( 'NEURÈENÝ', 'NEURÈENÝ', '' ) ;
#139 = DIRECTION ( 'NONE',  ( 1.000000000000000000, 0.000000000000000000, -0.000000000000000000 ) ) ;
#140 = CALENDAR_DATE ( 2023, 12, 2 ) ;
#141 = EDGE_CURVE ( 'NONE', #34, #236, #126, .T. ) ;
#142 = FACE_OUTER_BOUND ( 'NONE', #40, .T. ) ;
#143 = PLANE ( 'NONE',  #252 ) ;
#144 =( NAMED_UNIT ( * ) SI_UNIT ( $, .STERADIAN. ) SOLID_ANGLE_UNIT ( ) );
#145 = DIRECTION ( 'NONE',  ( 0.000000000000000000, 0.000000000000000000, 1.000000000000000000 ) ) ;
#146 = ORIENTED_EDGE ( 'NONE', *, *, #214, .T. ) ;
#147 = EDGE_CURVE ( 'NONE', #7, #89, #4, .T. ) ;
#148 = COORDINATED_UNIVERSAL_TIME_OFFSET ( 1, 0, .AHEAD. ) ;
#149 = EDGE_LOOP ( 'NONE', ( #196, #60 ) ) ;
#150 = ORIENTED_EDGE ( 'NONE', *, *, #219, .T. ) ;
#151 = DIRECTION ( 'NONE',  ( -1.000000000000000000, 0.000000000000000000, 0.000000000000000000 ) ) ;
#152 = DIRECTION ( 'NONE',  ( -1.000000000000000000, 0.000000000000000000, 0.000000000000000000 ) ) ;
#153 = ORIENTED_EDGE ( 'NONE', *, *, #160, .T. ) ;
#154 = ADVANCED_FACE ( 'NONE', ( #155 ), #224, .F. ) ;
#155 = FACE_OUTER_BOUND ( 'NONE', #129, .T. ) ;
#156 = AXIS2_PLACEMENT_3D ( 'NONE', #127, #145, #20 ) ;
#157 = DATE_AND_TIME ( #140, #218 ) ;
#158 = PRODUCT ( '6a2f', '6a2f', '', ( #72 ) ) ;
#159 = CARTESIAN_POINT ( 'NONE',  ( 0.000000000000000000, 0.000000000000000000, 5.000000000000000000 ) ) ;
#160 = EDGE_CURVE ( 'NONE', #34, #7, #55, .T. ) ;
#161 = CARTESIAN_POINT ( 'NONE',  ( 8.000000000000000000, 9.797174393178825657E-16, 5.000000000000000000 ) ) ;
#162 = CIRCLE ( 'NONE', #39, 5.000000000000000888 ) ;
#163 = EDGE_LOOP ( 'NONE', ( #65, #153, #70, #197 ) ) ;
#164 = ORIENTED_EDGE ( 'NONE', *, *, #52, .T. ) ;
#165 = DIRECTION ( 'NONE',  ( -1.000000000000000000, 0.000000000000000000, 0.000000000000000000 ) ) ;
#166 = CARTESIAN_POINT ( 'NONE',  ( -8.000000000000000000, 0.000000000000000000, 5.000000000000000000 ) ) ;
#167 = LOCAL_TIME ( 12, 27, 28.00000000000000000, #26 ) ;
#168 = DIRECTION ( 'NONE',  ( -0.000000000000000000, -0.000000000000000000, -1.000000000000000000 ) ) ;
#169 = ADVANCED_FACE ( 'NONE', ( #142 ), #33, .T. ) ;
#170 = ORIENTED_EDGE ( 'NONE', *, *, #2, .F. ) ;
#171 = DIRECTION ( 'NONE',  ( 0.000000000000000000, 0.000000000000000000, 1.000000000000000000 ) ) ;
#172 = APPROVAL ( #91, 'NEURÈENÝ' ) ;
#173 = CLOSED_SHELL ( 'NONE', ( #241, #112, #38, #13, #154, #98, #169 ) ) ;
#174 = DATE_TIME_ROLE ( 'classification_date' ) ;
#175 = AXIS2_PLACEMENT_3D ( 'NONE', #68, #221, #50 ) ;
#176 = DIRECTION ( 'NONE',  ( 0.000000000000000000, 0.000000000000000000, 1.000000000000000000 ) ) ;
#177 = DATE_AND_TIME ( #22, #71 ) ;
#178 = FACE_OUTER_BOUND ( 'NONE', #111, .T. ) ;
#179 = ORIENTED_EDGE ( 'NONE', *, *, #198, .F. ) ;
#180 = CIRCLE ( 'NONE', #67, 8.000000000000000000 ) ;
#181 = PRODUCT_DEFINITION_FORMATION_WITH_SPECIFIED_SOURCE ( 'LIBOVOLNÝ', '', #158, .NOT_KNOWN. ) ;
#182 = DIRECTION ( 'NONE',  ( 0.000000000000000000, 0.000000000000000000, 1.000000000000000000 ) ) ;
#183 = SECURITY_CLASSIFICATION_LEVEL ( 'unclassified' ) ;
#184 = APPLICATION_PROTOCOL_DEFINITION ( 'international standard', 'config_control_design', 1994, #56 ) ;
#185 = ADVANCED_BREP_SHAPE_REPRESENTATION ( '6a2f', ( #229, #230 ), #96 ) ;
#186 = PERSON_AND_ORGANIZATION_ROLE ( 'design_supplier' ) ;
#187 = VECTOR ( 'NONE', #250, 1000.000000000000000 ) ;
#188 = AXIS2_PLACEMENT_3D ( 'NONE', #137, #182, #74 ) ;
#189 =( LENGTH_UNIT ( ) NAMED_UNIT ( * ) SI_UNIT ( .MILLI., .METRE. ) );
#190 = EDGE_CURVE ( 'NONE', #81, #88, #238, .T. ) ;
#191 = PERSON ( 'NEURÈENÝ', 'NEURÈENÝ', 'NEURÈENÝ', ('NEURÈENÝ'), ('NEURÈENÝ'), ('NEURÈENÝ') ) ;
#192 = CC_DESIGN_APPROVAL ( #10, ( #14 ) ) ;
#193 = CARTESIAN_POINT ( 'NONE',  ( 0.000000000000000000, 0.000000000000000000, 0.000000000000000000 ) ) ;
#194 = PRODUCT_DEFINITION_SHAPE ( 'NONE', 'NONE',  #95 ) ;
#195 = CARTESIAN_POINT ( 'NONE',  ( 5.000000000000000888, 6.123233995736767268E-16, 5.000000000000000000 ) ) ;
#196 = ORIENTED_EDGE ( 'NONE', *, *, #135, .F. ) ;
#197 = ORIENTED_EDGE ( 'NONE', *, *, #47, .F. ) ;
#198 = EDGE_CURVE ( 'NONE', #93, #18, #201, .T. ) ;
#199 = CARTESIAN_POINT ( 'NONE',  ( 0.000000000000000000, 0.000000000000000000, 5.000000000000000000 ) ) ;
#200 = APPROVAL_ROLE ( '' ) ;
#201 = CIRCLE ( 'NONE', #9, 8.000000000000000000 ) ;
#202 = ORIENTED_EDGE ( 'NONE', *, *, #141, .T. ) ;
#203 = CARTESIAN_POINT ( 'NONE',  ( 0.000000000000000000, 0.000000000000000000, 0.000000000000000000 ) ) ;
#204 = APPROVAL_PERSON_ORGANIZATION ( #45, #120, #200 ) ;
#205 = CALENDAR_DATE ( 2023, 12, 2 ) ;
#206 = CC_DESIGN_PERSON_AND_ORGANIZATION_ASSIGNMENT ( #11, #31, ( #14 ) ) ;
#207 = SHAPE_DEFINITION_REPRESENTATION ( #194, #185 ) ;
#208 = CARTESIAN_POINT ( 'NONE',  ( 5.000000000000000888, 6.123233995736767268E-16, 250.0000000000000000 ) ) ;
#209 = CC_DESIGN_APPROVAL ( #120, ( #181 ) ) ;
#210 = ORIENTED_EDGE ( 'NONE', *, *, #135, .T. ) ;
#211 = EDGE_CURVE ( 'NONE', #88, #81, #243, .T. ) ;
#212 = CARTESIAN_POINT ( 'NONE',  ( 5.000000000000000888, 6.123233995736767268E-16, 250.0000000000000000 ) ) ;
#213 = AXIS2_PLACEMENT_3D ( 'NONE', #83, #113, #165 ) ;
#214 = EDGE_CURVE ( 'NONE', #88, #93, #42, .T. ) ;
#215 = AXIS2_PLACEMENT_3D ( 'NONE', #159, #248, #130 ) ;
#216 = FACE_OUTER_BOUND ( 'NONE', #163, .T. ) ;
#217 = ORIENTED_EDGE ( 'NONE', *, *, #219, .F. ) ;
#218 = LOCAL_TIME ( 12, 27, 28.00000000000000000, #245 ) ;
#219 = EDGE_CURVE ( 'NONE', #236, #34, #162, .T. ) ;
#220 = PERSON_AND_ORGANIZATION ( #191, #138 ) ;
#221 = DIRECTION ( 'NONE',  ( 0.000000000000000000, 0.000000000000000000, 1.000000000000000000 ) ) ;
#222 = PERSON_AND_ORGANIZATION_ROLE ( 'design_owner' ) ;
#223 = PERSON_AND_ORGANIZATION ( #191, #138 ) ;
#224 = PLANE ( 'NONE',  #86 ) ;
#225 = CC_DESIGN_PERSON_AND_ORGANIZATION_ASSIGNMENT ( #107, #255, ( #95 ) ) ;
#226 = APPROVAL_STATUS ( 'not_yet_approved' ) ;
#227 = UNCERTAINTY_MEASURE_WITH_UNIT (LENGTH_MEASURE( 1.000000000000000082E-05 ), #189, 'distance_accuracy_value', 'NONE');
#228 = DIRECTION ( 'NONE',  ( 0.000000000000000000, 0.000000000000000000, 1.000000000000000000 ) ) ;
#229 = MANIFOLD_SOLID_BREP ( 'Pøidat vysunutím3', #173 ) ;
#230 = AXIS2_PLACEMENT_3D ( 'NONE', #110, #171, #69 ) ;
#231 = ORIENTED_EDGE ( 'NONE', *, *, #190, .F. ) ;
#232 = CARTESIAN_POINT ( 'NONE',  ( 0.000000000000000000, 0.000000000000000000, 250.0000000000000000 ) ) ;
#233 = CARTESIAN_POINT ( 'NONE',  ( -8.000000000000000000, 0.000000000000000000, 0.000000000000000000 ) ) ;
#234 = ORIENTED_EDGE ( 'NONE', *, *, #160, .F. ) ;
#235 = CARTESIAN_POINT ( 'NONE',  ( 8.000000000000000000, 9.797174393178825657E-16, 0.000000000000000000 ) ) ;
#236 = VERTEX_POINT ( 'NONE', #16 ) ;
#237 = EDGE_LOOP ( 'NONE', ( #234, #217, #63, #210 ) ) ;
#238 = CIRCLE ( 'NONE', #215, 8.000000000000000000 ) ;
#239 = FACE_OUTER_BOUND ( 'NONE', #237, .T. ) ;
#240 = CARTESIAN_POINT ( 'NONE',  ( 0.000000000000000000, 0.000000000000000000, 5.000000000000000000 ) ) ;
#241 = ADVANCED_FACE ( 'NONE', ( #216 ), #41, .T. ) ;
#242 = VECTOR ( 'NONE', #5, 1000.000000000000000 ) ;
#243 = CIRCLE ( 'NONE', #156, 8.000000000000000000 ) ;
#244 = PERSON_AND_ORGANIZATION ( #191, #138 ) ;
#245 = COORDINATED_UNIVERSAL_TIME_OFFSET ( 1, 0, .AHEAD. ) ;
#246 = DIRECTION ( 'NONE',  ( 0.000000000000000000, 0.000000000000000000, 1.000000000000000000 ) ) ;
#247 = DIRECTION ( 'NONE',  ( 1.000000000000000000, 0.000000000000000000, -0.000000000000000000 ) ) ;
#248 = DIRECTION ( 'NONE',  ( 0.000000000000000000, 0.000000000000000000, 1.000000000000000000 ) ) ;
#249 = DATE_TIME_ROLE ( 'creation_date' ) ;
#250 = DIRECTION ( 'NONE',  ( -0.000000000000000000, -0.000000000000000000, -1.000000000000000000 ) ) ;
#251 = CC_DESIGN_DATE_AND_TIME_ASSIGNMENT ( #17, #249, ( #95 ) ) ;
#252 = AXIS2_PLACEMENT_3D ( 'NONE', #24, #103, #247 ) ;
#253 = DIRECTION ( 'NONE',  ( -1.000000000000000000, 0.000000000000000000, 0.000000000000000000 ) ) ;
#254 = ORIENTED_EDGE ( 'NONE', *, *, #211, .T. ) ;
#255 = PERSON_AND_ORGANIZATION_ROLE ( 'creator' ) ;
ENDSEC;
END-ISO-10303-21;
