ISO-10303-21;
HEADER;
FILE_DESCRIPTION (( 'STEP AP203' ),
    '1' );
FILE_NAME ('18de.STEP',
    '2022-07-07T10:28:06',
    ( '' ),
    ( '' ),
    'SwSTEP 2.0',
    'SolidWorks 2019',
    '' );
FILE_SCHEMA (( 'CONFIG_CONTROL_DESIGN' ));
ENDSEC;

DATA;
#1 =( LENGTH_UNIT ( ) NAMED_UNIT ( * ) SI_UNIT ( .MILLI., .METRE. ) );
#2 = PLANE ( 'NONE',  #285 ) ;
#3 = APPROVAL_DATE_TIME ( #172, #268 ) ;
#4 = PERSON_AND_ORGANIZATION_ROLE ( 'design_owner' ) ;
#5 = AXIS2_PLACEMENT_3D ( 'NONE', #25, #117, #166 ) ;
#6 = SECURITY_CLASSIFICATION_LEVEL ( 'unclassified' ) ;
#7 = APPROVAL_ROLE ( '' ) ;
#8 = ADVANCED_FACE ( 'NONE', ( #260 ), #143, .T. ) ;
#9 = CALENDAR_DATE ( 2022, 7, 7 ) ;
#10 = VERTEX_POINT ( 'NONE', #300 ) ;
#11 = AXIS2_PLACEMENT_3D ( 'NONE', #93, #95, #236 ) ;
#12 = LOCAL_TIME ( 12, 28, 6.000000000000000000, #286 ) ;
#13 = EDGE_CURVE ( 'NONE', #10, #132, #205, .T. ) ;
#14 = EDGE_LOOP ( 'NONE', ( #248, #106 ) ) ;
#15 = ORIENTED_EDGE ( 'NONE', *, *, #235, .T. ) ;
#16 = TOROIDAL_SURFACE ( 'NONE', #207, 1.950000000000000178, 0.2000000000000000111 ) ;
#17 = EDGE_CURVE ( 'NONE', #107, #271, #89, .T. ) ;
#18 = CARTESIAN_POINT ( 'NONE',  ( 0.000000000000000000, 0.000000000000000000, 0.000000000000000000 ) ) ;
#19 = PRODUCT_RELATED_PRODUCT_CATEGORY ( 'detail', '', ( #185 ) ) ;
#20 = PLANE ( 'NONE',  #197 ) ;
#21 = DIRECTION ( 'NONE',  ( 1.224646799147353207E-16, 1.000000000000000000, -0.000000000000000000 ) ) ;
#22 = DIRECTION ( 'NONE',  ( -1.000000000000000000, 0.000000000000000000, 0.000000000000000000 ) ) ;
#23 = PRODUCT_DEFINITION_FORMATION_WITH_SPECIFIED_SOURCE ( 'LIBOVOLNÝ', '', #185, .NOT_KNOWN. ) ;
#24 = DIRECTION ( 'NONE',  ( 1.000000000000000000, 0.000000000000000000, 0.000000000000000000 ) ) ;
#25 = CARTESIAN_POINT ( 'NONE',  ( 0.000000000000000000, 0.000000000000000000, 203.0000000000000000 ) ) ;
#26 = DIRECTION ( 'NONE',  ( -1.000000000000000000, 0.000000000000000000, 0.000000000000000000 ) ) ;
#27 = PERSON_AND_ORGANIZATION ( #298, #134 ) ;
#28 = CARTESIAN_POINT ( 'NONE',  ( -1.950000000000000178, 2.388061258337339136E-16, 3.200000000000008171 ) ) ;
#29 = VECTOR ( 'NONE', #168, 1000.000000000000000 ) ;
#30 = CARTESIAN_POINT ( 'NONE',  ( 1.750000000000000000, 2.143131898507868297E-16, 203.0000000000000000 ) ) ;
#31 = MECHANICAL_CONTEXT ( 'NONE', #252, 'mechanical' ) ;
#32 = PERSON_AND_ORGANIZATION ( #298, #134 ) ;
#33 = COORDINATED_UNIVERSAL_TIME_OFFSET ( 1, 0, .AHEAD. ) ;
#34 = COORDINATED_UNIVERSAL_TIME_OFFSET ( 1, 0, .AHEAD. ) ;
#35 = LOCAL_TIME ( 12, 28, 6.000000000000000000, #34 ) ;
#36 = CIRCLE ( 'NONE', #121, 3.500000000000000444 ) ;
#37 = UNCERTAINTY_MEASURE_WITH_UNIT (LENGTH_MEASURE( 1.000000000000000082E-05 ), #1, 'distance_accuracy_value', 'NONE');
#38 = CC_DESIGN_PERSON_AND_ORGANIZATION_ASSIGNMENT ( #55, #148, ( #23 ) ) ;
#39 = ORIENTED_EDGE ( 'NONE', *, *, #235, .F. ) ;
#40 = ORIENTED_EDGE ( 'NONE', *, *, #66, .F. ) ;
#41 = CARTESIAN_POINT ( 'NONE',  ( 0.000000000000000000, 0.000000000000000000, 3.000000000000000000 ) ) ;
#42 = DIRECTION ( 'NONE',  ( 1.000000000000000000, 0.000000000000000000, 0.000000000000000000 ) ) ;
#43 = DIRECTION ( 'NONE',  ( 0.000000000000000000, 0.000000000000000000, 1.000000000000000000 ) ) ;
#44 = DIRECTION ( 'NONE',  ( 0.000000000000000000, 0.000000000000000000, 1.000000000000000000 ) ) ;
#45 = CARTESIAN_POINT ( 'NONE',  ( -1.750000000000000000, 0.000000000000000000, 203.0000000000000000 ) ) ;
#46 = ADVANCED_FACE ( 'NONE', ( #234 ), #115, .T. ) ;
#47 = DIRECTION ( 'NONE',  ( 0.000000000000000000, 0.000000000000000000, 1.000000000000000000 ) ) ;
#48 = CC_DESIGN_APPROVAL ( #268, ( #73 ) ) ;
#49 = ORIENTED_EDGE ( 'NONE', *, *, #280, .T. ) ;
#50 = DIRECTION ( 'NONE',  ( 0.000000000000000000, 0.000000000000000000, 1.000000000000000000 ) ) ;
#51 = CC_DESIGN_PERSON_AND_ORGANIZATION_ASSIGNMENT ( #32, #4, ( #185 ) ) ;
#52 = CARTESIAN_POINT ( 'NONE',  ( 1.950000000000000178, 0.000000000000000000, 3.000000000000004441 ) ) ;
#53 = APPROVAL_DATE_TIME ( #264, #191 ) ;
#54 =( NAMED_UNIT ( * ) SI_UNIT ( $, .STERADIAN. ) SOLID_ANGLE_UNIT ( ) );
#55 = PERSON_AND_ORGANIZATION ( #298, #134 ) ;
#56 = APPROVAL_STATUS ( 'not_yet_approved' ) ;
#57 = CIRCLE ( 'NONE', #169, 1.750000000000000000 ) ;
#58 = VERTEX_POINT ( 'NONE', #135 ) ;
#59 = ORIENTED_EDGE ( 'NONE', *, *, #203, .F. ) ;
#60 = EDGE_LOOP ( 'NONE', ( #176, #80, #225, #130 ) ) ;
#61 = EDGE_LOOP ( 'NONE', ( #84, #104, #156, #289 ) ) ;
#62 = ADVANCED_BREP_SHAPE_REPRESENTATION ( '18de', ( #101, #105 ), #230 ) ;
#63 = EDGE_CURVE ( 'NONE', #58, #10, #219, .T. ) ;
#64 = DIRECTION ( 'NONE',  ( -0.000000000000000000, -0.000000000000000000, -1.000000000000000000 ) ) ;
#65 = ORIENTED_EDGE ( 'NONE', *, *, #254, .T. ) ;
#66 = EDGE_CURVE ( 'NONE', #58, #180, #272, .T. ) ;
#67 = DIRECTION ( 'NONE',  ( 0.000000000000000000, 0.000000000000000000, 1.000000000000000000 ) ) ;
#68 = DIRECTION ( 'NONE',  ( 0.000000000000000000, 0.000000000000000000, 1.000000000000000000 ) ) ;
#69 = DIRECTION ( 'NONE',  ( 0.000000000000000000, 0.000000000000000000, 1.000000000000000000 ) ) ;
#70 = DIRECTION ( 'NONE',  ( 1.000000000000000000, 0.000000000000000000, 0.000000000000000000 ) ) ;
#71 = CIRCLE ( 'NONE', #242, 3.500000000000000444 ) ;
#72 = CARTESIAN_POINT ( 'NONE',  ( 0.000000000000000000, 0.000000000000000000, 3.000000000000000000 ) ) ;
#73 = PRODUCT_DEFINITION ( 'NEZNÁMÝ', '', #23, #223 ) ;
#74 = DIRECTION ( 'NONE',  ( 0.000000000000000000, -1.000000000000000000, 0.000000000000000000 ) ) ;
#75 = CIRCLE ( 'NONE', #273, 0.1999999999999998723 ) ;
#76 = COORDINATED_UNIVERSAL_TIME_OFFSET ( 1, 0, .AHEAD. ) ;
#77 = CC_DESIGN_SECURITY_CLASSIFICATION ( #96, ( #23 ) ) ;
#78 = PERSON_AND_ORGANIZATION ( #298, #134 ) ;
#79 = CIRCLE ( 'NONE', #302, 3.500000000000000444 ) ;
#80 = ORIENTED_EDGE ( 'NONE', *, *, #218, .T. ) ;
#81 = CC_DESIGN_APPROVAL ( #237, ( #96 ) ) ;
#82 = ORIENTED_EDGE ( 'NONE', *, *, #17, .T. ) ;
#83 = ORIENTED_EDGE ( 'NONE', *, *, #163, .T. ) ;
#84 = ORIENTED_EDGE ( 'NONE', *, *, #63, .F. ) ;
#85 = CIRCLE ( 'NONE', #247, 0.2000000000000000944 ) ;
#86 = ORIENTED_EDGE ( 'NONE', *, *, #120, .F. ) ;
#87 = DIRECTION ( 'NONE',  ( 1.000000000000000000, 0.000000000000000000, -0.000000000000000000 ) ) ;
#88 = EDGE_CURVE ( 'NONE', #198, #297, #140, .T. ) ;
#89 = CIRCLE ( 'NONE', #214, 1.950000000000000178 ) ;
#90 = CARTESIAN_POINT ( 'NONE',  ( -3.500000000000000444, 0.000000000000000000, 3.000000000000000000 ) ) ;
#91 = CARTESIAN_POINT ( 'NONE',  ( 0.000000000000000000, 0.000000000000000000, 3.000000000000000000 ) ) ;
#92 = FACE_OUTER_BOUND ( 'NONE', #249, .T. ) ;
#93 = CARTESIAN_POINT ( 'NONE',  ( 0.000000000000000000, 0.000000000000000000, 3.200000000000008171 ) ) ;
#94 = CARTESIAN_POINT ( 'NONE',  ( 0.000000000000000000, 0.000000000000000000, 3.000000000000000000 ) ) ;
#95 = DIRECTION ( 'NONE',  ( 0.000000000000000000, 0.000000000000000000, 1.000000000000000000 ) ) ;
#96 = SECURITY_CLASSIFICATION ( '', '', #6 ) ;
#97 = DIRECTION ( 'NONE',  ( 1.000000000000000000, 0.000000000000000000, 0.000000000000000000 ) ) ;
#98 = APPROVAL_STATUS ( 'not_yet_approved' ) ;
#99 = APPROVAL_PERSON_ORGANIZATION ( #123, #268, #288 ) ;
#100 = PERSON_AND_ORGANIZATION ( #298, #134 ) ;
#101 = MANIFOLD_SOLID_BREP ( 'Zaoblit1', #103 ) ;
#102 = CALENDAR_DATE ( 2022, 7, 7 ) ;
#103 = CLOSED_SHELL ( 'NONE', ( #261, #146, #151, #124, #131, #208, #46, #8, #199 ) ) ;
#104 = ORIENTED_EDGE ( 'NONE', *, *, #66, .T. ) ;
#105 = AXIS2_PLACEMENT_3D ( 'NONE', #217, #170, #216 ) ;
#106 = ORIENTED_EDGE ( 'NONE', *, *, #88, .T. ) ;
#107 = VERTEX_POINT ( 'NONE', #182 ) ;
#108 = AXIS2_PLACEMENT_3D ( 'NONE', #303, #69, #188 ) ;
#109 = CC_DESIGN_APPROVAL ( #191, ( #23 ) ) ;
#110 = CARTESIAN_POINT ( 'NONE',  ( 0.000000000000000000, 0.000000000000000000, 203.0000000000000000 ) ) ;
#111 = FACE_OUTER_BOUND ( 'NONE', #270, .T. ) ;
#112 = CARTESIAN_POINT ( 'NONE',  ( 0.000000000000000000, 0.000000000000000000, 3.200000000000008171 ) ) ;
#113 = DATE_TIME_ROLE ( 'classification_date' ) ;
#114 = CIRCLE ( 'NONE', #279, 1.950000000000000178 ) ;
#115 = CYLINDRICAL_SURFACE ( 'NONE', #149, 1.750000000000000000 ) ;
#116 = CYLINDRICAL_SURFACE ( 'NONE', #265, 3.500000000000000444 ) ;
#117 = DIRECTION ( 'NONE',  ( -0.000000000000000000, -0.000000000000000000, -1.000000000000000000 ) ) ;
#118 = FACE_OUTER_BOUND ( 'NONE', #221, .T. ) ;
#119 = APPROVAL_DATE_TIME ( #194, #237 ) ;
#120 = EDGE_CURVE ( 'NONE', #132, #180, #36, .T. ) ;
#121 = AXIS2_PLACEMENT_3D ( 'NONE', #18, #44, #209 ) ;
#122 = CARTESIAN_POINT ( 'NONE',  ( 1.750000000000000000, 2.143131898507868297E-16, 203.0000000000000000 ) ) ;
#123 = PERSON_AND_ORGANIZATION ( #298, #134 ) ;
#124 = ADVANCED_FACE ( 'NONE', ( #92 ), #138, .T. ) ;
#125 = PERSON_AND_ORGANIZATION ( #298, #134 ) ;
#126 = CALENDAR_DATE ( 2022, 7, 7 ) ;
#127 = PERSON_AND_ORGANIZATION_ROLE ( 'creator' ) ;
#128 = VECTOR ( 'NONE', #206, 1000.000000000000000 ) ;
#129 = EDGE_LOOP ( 'NONE', ( #224, #174, #154, #202 ) ) ;
#130 = ORIENTED_EDGE ( 'NONE', *, *, #226, .F. ) ;
#131 = ADVANCED_FACE ( 'NONE', ( #253, #136 ), #20, .T. ) ;
#132 = VERTEX_POINT ( 'NONE', #231 ) ;
#133 = CIRCLE ( 'NONE', #108, 1.750000000000000000 ) ;
#134 = ORGANIZATION ( 'NEURÈENÝ', 'NEURÈENÝ', '' ) ;
#135 = CARTESIAN_POINT ( 'NONE',  ( 3.500000000000000444, 4.286263797015737088E-16, 3.000000000000000000 ) ) ;
#136 = FACE_OUTER_BOUND ( 'NONE', #246, .T. ) ;
#137 = DIRECTION ( 'NONE',  ( 1.000000000000000000, 0.000000000000000000, 0.000000000000000000 ) ) ;
#138 = CYLINDRICAL_SURFACE ( 'NONE', #157, 3.500000000000000444 ) ;
#139 = CARTESIAN_POINT ( 'NONE',  ( -1.750000000000000000, 0.000000000000000000, 3.200000000000008171 ) ) ;
#140 = CIRCLE ( 'NONE', #189, 1.750000000000000000 ) ;
#141 = DIRECTION ( 'NONE',  ( 0.000000000000000000, 0.000000000000000000, 1.000000000000000000 ) ) ;
#142 = DIRECTION ( 'NONE',  ( 1.000000000000000000, 0.000000000000000000, 0.000000000000000000 ) ) ;
#143 = PLANE ( 'NONE',  #295 ) ;
#144 = DIRECTION ( 'NONE',  ( 0.000000000000000000, 0.000000000000000000, 1.000000000000000000 ) ) ;
#145 = AXIS2_PLACEMENT_3D ( 'NONE', #112, #43, #137 ) ;
#146 = ADVANCED_FACE ( 'NONE', ( #111 ), #228, .T. ) ;
#147 = APPLICATION_PROTOCOL_DEFINITION ( 'international standard', 'config_control_design', 1994, #252 ) ;
#148 = PERSON_AND_ORGANIZATION_ROLE ( 'design_supplier' ) ;
#149 = AXIS2_PLACEMENT_3D ( 'NONE', #187, #211, #257 ) ;
#150 = DATE_AND_TIME ( #126, #291 ) ;
#151 = ADVANCED_FACE ( 'NONE', ( #263 ), #116, .T. ) ;
#152 = EDGE_LOOP ( 'NONE', ( #276, #82 ) ) ;
#153 = TOROIDAL_SURFACE ( 'NONE', #11, 1.950000000000000178, 0.2000000000000000111 ) ;
#154 = ORIENTED_EDGE ( 'NONE', *, *, #226, .T. ) ;
#155 = CC_DESIGN_PERSON_AND_ORGANIZATION_ASSIGNMENT ( #100, #241, ( #96 ) ) ;
#156 = ORIENTED_EDGE ( 'NONE', *, *, #203, .T. ) ;
#157 = AXIS2_PLACEMENT_3D ( 'NONE', #41, #64, #22 ) ;
#158 = EDGE_LOOP ( 'NONE', ( #173, #293, #15, #65 ) ) ;
#159 = DIRECTION ( 'NONE',  ( 0.000000000000000000, 0.000000000000000000, 1.000000000000000000 ) ) ;
#160 = LINE ( 'NONE', #184, #29 ) ;
#161 = SHAPE_DEFINITION_REPRESENTATION ( #287, #62 ) ;
#162 = ORIENTED_EDGE ( 'NONE', *, *, #13, .T. ) ;
#163 = EDGE_CURVE ( 'NONE', #10, #58, #71, .T. ) ;
#164 = DIRECTION ( 'NONE',  ( 0.000000000000000000, 0.000000000000000000, 1.000000000000000000 ) ) ;
#165 = VECTOR ( 'NONE', #250, 1000.000000000000000 ) ;
#166 = DIRECTION ( 'NONE',  ( -1.000000000000000000, 0.000000000000000000, 0.000000000000000000 ) ) ;
#167 = CARTESIAN_POINT ( 'NONE',  ( 0.000000000000000000, 0.000000000000000000, 3.000000000000000000 ) ) ;
#168 = DIRECTION ( 'NONE',  ( -0.000000000000000000, -0.000000000000000000, -1.000000000000000000 ) ) ;
#169 = AXIS2_PLACEMENT_3D ( 'NONE', #275, #67, #256 ) ;
#170 = DIRECTION ( 'NONE',  ( 0.000000000000000000, 0.000000000000000000, 1.000000000000000000 ) ) ;
#171 = PERSON_AND_ORGANIZATION ( #298, #134 ) ;
#172 = DATE_AND_TIME ( #193, #190 ) ;
#173 = ORIENTED_EDGE ( 'NONE', *, *, #280, .F. ) ;
#174 = ORIENTED_EDGE ( 'NONE', *, *, #284, .F. ) ;
#175 = EDGE_CURVE ( 'NONE', #297, #198, #133, .T. ) ;
#176 = ORIENTED_EDGE ( 'NONE', *, *, #254, .F. ) ;
#177 = ORIENTED_EDGE ( 'NONE', *, *, #88, .F. ) ;
#178 = VERTEX_POINT ( 'NONE', #139 ) ;
#179 = CARTESIAN_POINT ( 'NONE',  ( 0.000000000000000000, 0.000000000000000000, 3.000000000000000000 ) ) ;
#180 = VERTEX_POINT ( 'NONE', #281 ) ;
#181 = LINE ( 'NONE', #30, #128 ) ;
#182 = CARTESIAN_POINT ( 'NONE',  ( -1.950000000000000178, 2.388061258337339136E-16, 3.000000000000004441 ) ) ;
#183 = EDGE_CURVE ( 'NONE', #271, #107, #114, .T. ) ;
#184 = CARTESIAN_POINT ( 'NONE',  ( -1.750000000000000000, 0.000000000000000000, 203.0000000000000000 ) ) ;
#185 = PRODUCT ( '18de', '18de', '', ( #31 ) ) ;
#186 = CALENDAR_DATE ( 2022, 7, 7 ) ;
#187 = CARTESIAN_POINT ( 'NONE',  ( 0.000000000000000000, 0.000000000000000000, 203.0000000000000000 ) ) ;
#188 = DIRECTION ( 'NONE',  ( 1.000000000000000000, 0.000000000000000000, 0.000000000000000000 ) ) ;
#189 = AXIS2_PLACEMENT_3D ( 'NONE', #306, #47, #70 ) ;
#190 = LOCAL_TIME ( 12, 28, 6.000000000000000000, #244 ) ;
#191 = APPROVAL ( #56, 'NEURÈENÝ' ) ;
#192 = CARTESIAN_POINT ( 'NONE',  ( 0.000000000000000000, 0.000000000000000000, 0.000000000000000000 ) ) ;
#193 = CALENDAR_DATE ( 2022, 7, 7 ) ;
#194 = DATE_AND_TIME ( #186, #35 ) ;
#195 = APPROVAL_ROLE ( '' ) ;
#196 = ORIENTED_EDGE ( 'NONE', *, *, #284, .T. ) ;
#197 = AXIS2_PLACEMENT_3D ( 'NONE', #94, #141, #204 ) ;
#198 = VERTEX_POINT ( 'NONE', #122 ) ;
#199 = ADVANCED_FACE ( 'NONE', ( #262 ), #16, .F. ) ;
#200 = ORIENTED_EDGE ( 'NONE', *, *, #63, .T. ) ;
#201 = APPROVAL_PERSON_ORGANIZATION ( #27, #237, #7 ) ;
#202 = ORIENTED_EDGE ( 'NONE', *, *, #17, .F. ) ;
#203 = EDGE_CURVE ( 'NONE', #180, #132, #79, .T. ) ;
#204 = DIRECTION ( 'NONE',  ( 1.000000000000000000, 0.000000000000000000, -0.000000000000000000 ) ) ;
#205 = LINE ( 'NONE', #90, #239 ) ;
#206 = DIRECTION ( 'NONE',  ( -0.000000000000000000, -0.000000000000000000, -1.000000000000000000 ) ) ;
#207 = AXIS2_PLACEMENT_3D ( 'NONE', #227, #50, #238 ) ;
#208 = ADVANCED_FACE ( 'NONE', ( #118 ), #2, .F. ) ;
#209 = DIRECTION ( 'NONE',  ( 1.000000000000000000, 0.000000000000000000, 0.000000000000000000 ) ) ;
#210 = DIRECTION ( 'NONE',  ( -1.000000000000000000, 1.224646799147354686E-16, 0.000000000000000000 ) ) ;
#211 = DIRECTION ( 'NONE',  ( -0.000000000000000000, -0.000000000000000000, -1.000000000000000000 ) ) ;
#212 = CC_DESIGN_PERSON_AND_ORGANIZATION_ASSIGNMENT ( #171, #267, ( #23 ) ) ;
#213 = CARTESIAN_POINT ( 'NONE',  ( 0.000000000000000000, 0.000000000000000000, 0.000000000000000000 ) ) ;
#214 = AXIS2_PLACEMENT_3D ( 'NONE', #179, #301, #304 ) ;
#215 = CARTESIAN_POINT ( 'NONE',  ( 1.750000000000000000, 2.143131898507868297E-16, 3.200000000000008171 ) ) ;
#216 = DIRECTION ( 'NONE',  ( 1.000000000000000000, 0.000000000000000000, 0.000000000000000000 ) ) ;
#217 = CARTESIAN_POINT ( 'NONE',  ( 0.000000000000000000, 0.000000000000000000, 0.000000000000000000 ) ) ;
#218 = EDGE_CURVE ( 'NONE', #178, #107, #75, .T. ) ;
#219 = CIRCLE ( 'NONE', #251, 3.500000000000000444 ) ;
#220 = DATE_AND_TIME ( #102, #243 ) ;
#221 = EDGE_LOOP ( 'NONE', ( #86, #59 ) ) ;
#222 = ORIENTED_EDGE ( 'NONE', *, *, #120, .T. ) ;
#223 = DESIGN_CONTEXT ( 'detailed design', #294, 'design' ) ;
#224 = ORIENTED_EDGE ( 'NONE', *, *, #218, .F. ) ;
#225 = ORIENTED_EDGE ( 'NONE', *, *, #183, .F. ) ;
#226 = EDGE_CURVE ( 'NONE', #269, #271, #85, .T. ) ;
#227 = CARTESIAN_POINT ( 'NONE',  ( 0.000000000000000000, 0.000000000000000000, 3.200000000000008171 ) ) ;
#228 = CYLINDRICAL_SURFACE ( 'NONE', #5, 1.750000000000000000 ) ;
#229 = DIRECTION ( 'NONE',  ( -0.000000000000000000, -0.000000000000000000, -1.000000000000000000 ) ) ;
#230 =( GEOMETRIC_REPRESENTATION_CONTEXT ( 3 ) GLOBAL_UNCERTAINTY_ASSIGNED_CONTEXT ( ( #37 ) ) GLOBAL_UNIT_ASSIGNED_CONTEXT ( ( #1, #282, #54 ) ) REPRESENTATION_CONTEXT ( 'NONE', 'WORKASPACE' ) );
#231 = CARTESIAN_POINT ( 'NONE',  ( -3.500000000000000444, 0.000000000000000000, 0.000000000000000000 ) ) ;
#232 = DIRECTION ( 'NONE',  ( 1.000000000000000000, 0.000000000000000000, -0.000000000000000000 ) ) ;
#233 = APPROVAL_STATUS ( 'not_yet_approved' ) ;
#234 = FACE_OUTER_BOUND ( 'NONE', #158, .T. ) ;
#235 = EDGE_CURVE ( 'NONE', #297, #178, #160, .T. ) ;
#236 = DIRECTION ( 'NONE',  ( 1.000000000000000000, 0.000000000000000000, 0.000000000000000000 ) ) ;
#237 = APPROVAL ( #233, 'NEURÈENÝ' ) ;
#238 = DIRECTION ( 'NONE',  ( 1.000000000000000000, 0.000000000000000000, 0.000000000000000000 ) ) ;
#239 = VECTOR ( 'NONE', #274, 1000.000000000000000 ) ;
#240 = APPLICATION_PROTOCOL_DEFINITION ( 'international standard', 'config_control_design', 1994, #294 ) ;
#241 = PERSON_AND_ORGANIZATION_ROLE ( 'classification_officer' ) ;
#242 = AXIS2_PLACEMENT_3D ( 'NONE', #91, #277, #97 ) ;
#243 = LOCAL_TIME ( 12, 28, 6.000000000000000000, #76 ) ;
#244 = COORDINATED_UNIVERSAL_TIME_OFFSET ( 1, 0, .AHEAD. ) ;
#245 = CC_DESIGN_DATE_AND_TIME_ASSIGNMENT ( #220, #266, ( #73 ) ) ;
#246 = EDGE_LOOP ( 'NONE', ( #83, #200 ) ) ;
#247 = AXIS2_PLACEMENT_3D ( 'NONE', #307, #74, #305 ) ;
#248 = ORIENTED_EDGE ( 'NONE', *, *, #175, .T. ) ;
#249 = EDGE_LOOP ( 'NONE', ( #40, #292, #162, #222 ) ) ;
#250 = DIRECTION ( 'NONE',  ( -0.000000000000000000, -0.000000000000000000, -1.000000000000000000 ) ) ;
#251 = AXIS2_PLACEMENT_3D ( 'NONE', #255, #68, #42 ) ;
#252 = APPLICATION_CONTEXT ( 'configuration controlled 3d designs of mechanical parts and assemblies' ) ;
#253 = FACE_BOUND ( 'NONE', #152, .T. ) ;
#254 = EDGE_CURVE ( 'NONE', #178, #269, #259, .T. ) ;
#255 = CARTESIAN_POINT ( 'NONE',  ( 0.000000000000000000, 0.000000000000000000, 3.000000000000000000 ) ) ;
#256 = DIRECTION ( 'NONE',  ( 1.000000000000000000, 0.000000000000000000, 0.000000000000000000 ) ) ;
#257 = DIRECTION ( 'NONE',  ( -1.000000000000000000, 0.000000000000000000, 0.000000000000000000 ) ) ;
#258 = FACE_OUTER_BOUND ( 'NONE', #60, .T. ) ;
#259 = CIRCLE ( 'NONE', #145, 1.750000000000000000 ) ;
#260 = FACE_OUTER_BOUND ( 'NONE', #14, .T. ) ;
#261 = ADVANCED_FACE ( 'NONE', ( #258 ), #153, .F. ) ;
#262 = FACE_OUTER_BOUND ( 'NONE', #129, .T. ) ;
#263 = FACE_OUTER_BOUND ( 'NONE', #61, .T. ) ;
#264 = DATE_AND_TIME ( #9, #12 ) ;
#265 = AXIS2_PLACEMENT_3D ( 'NONE', #167, #229, #26 ) ;
#266 = DATE_TIME_ROLE ( 'creation_date' ) ;
#267 = PERSON_AND_ORGANIZATION_ROLE ( 'creator' ) ;
#268 = APPROVAL ( #98, 'NEURÈENÝ' ) ;
#269 = VERTEX_POINT ( 'NONE', #215 ) ;
#270 = EDGE_LOOP ( 'NONE', ( #177, #49, #196, #39 ) ) ;
#271 = VERTEX_POINT ( 'NONE', #52 ) ;
#272 = LINE ( 'NONE', #278, #165 ) ;
#273 = AXIS2_PLACEMENT_3D ( 'NONE', #28, #21, #210 ) ;
#274 = DIRECTION ( 'NONE',  ( -0.000000000000000000, -0.000000000000000000, -1.000000000000000000 ) ) ;
#275 = CARTESIAN_POINT ( 'NONE',  ( 0.000000000000000000, 0.000000000000000000, 3.200000000000008171 ) ) ;
#276 = ORIENTED_EDGE ( 'NONE', *, *, #183, .T. ) ;
#277 = DIRECTION ( 'NONE',  ( 0.000000000000000000, 0.000000000000000000, 1.000000000000000000 ) ) ;
#278 = CARTESIAN_POINT ( 'NONE',  ( 3.500000000000000444, 4.286263797015737088E-16, 3.000000000000000000 ) ) ;
#279 = AXIS2_PLACEMENT_3D ( 'NONE', #72, #283, #142 ) ;
#280 = EDGE_CURVE ( 'NONE', #198, #269, #181, .T. ) ;
#281 = CARTESIAN_POINT ( 'NONE',  ( 3.500000000000000444, 4.286263797015737088E-16, 0.000000000000000000 ) ) ;
#282 =( NAMED_UNIT ( * ) PLANE_ANGLE_UNIT ( ) SI_UNIT ( $, .RADIAN. ) );
#283 = DIRECTION ( 'NONE',  ( -0.000000000000000000, -0.000000000000000000, -1.000000000000000000 ) ) ;
#284 = EDGE_CURVE ( 'NONE', #269, #178, #57, .T. ) ;
#285 = AXIS2_PLACEMENT_3D ( 'NONE', #213, #164, #232 ) ;
#286 = COORDINATED_UNIVERSAL_TIME_OFFSET ( 1, 0, .AHEAD. ) ;
#287 = PRODUCT_DEFINITION_SHAPE ( 'NONE', 'NONE',  #73 ) ;
#288 = APPROVAL_ROLE ( '' ) ;
#289 = ORIENTED_EDGE ( 'NONE', *, *, #13, .F. ) ;
#290 = CC_DESIGN_DATE_AND_TIME_ASSIGNMENT ( #150, #113, ( #96 ) ) ;
#291 = LOCAL_TIME ( 12, 28, 6.000000000000000000, #33 ) ;
#292 = ORIENTED_EDGE ( 'NONE', *, *, #163, .F. ) ;
#293 = ORIENTED_EDGE ( 'NONE', *, *, #175, .F. ) ;
#294 = APPLICATION_CONTEXT ( 'configuration controlled 3d designs of mechanical parts and assemblies' ) ;
#295 = AXIS2_PLACEMENT_3D ( 'NONE', #110, #159, #87 ) ;
#296 = APPROVAL_PERSON_ORGANIZATION ( #125, #191, #195 ) ;
#297 = VERTEX_POINT ( 'NONE', #45 ) ;
#298 = PERSON ( 'NEURÈENÝ', 'NEURÈENÝ', 'NEURÈENÝ', ('NEURÈENÝ'), ('NEURÈENÝ'), ('NEURÈENÝ') ) ;
#299 = CC_DESIGN_PERSON_AND_ORGANIZATION_ASSIGNMENT ( #78, #127, ( #73 ) ) ;
#300 = CARTESIAN_POINT ( 'NONE',  ( -3.500000000000000444, 0.000000000000000000, 3.000000000000000000 ) ) ;
#301 = DIRECTION ( 'NONE',  ( -0.000000000000000000, -0.000000000000000000, -1.000000000000000000 ) ) ;
#302 = AXIS2_PLACEMENT_3D ( 'NONE', #192, #144, #24 ) ;
#303 = CARTESIAN_POINT ( 'NONE',  ( 0.000000000000000000, 0.000000000000000000, 203.0000000000000000 ) ) ;
#304 = DIRECTION ( 'NONE',  ( 1.000000000000000000, 0.000000000000000000, 0.000000000000000000 ) ) ;
#305 = DIRECTION ( 'NONE',  ( 0.000000000000000000, 0.000000000000000000, -1.000000000000000000 ) ) ;
#306 = CARTESIAN_POINT ( 'NONE',  ( 0.000000000000000000, 0.000000000000000000, 203.0000000000000000 ) ) ;
#307 = CARTESIAN_POINT ( 'NONE',  ( 1.950000000000000178, 0.000000000000000000, 3.200000000000008171 ) ) ;
ENDSEC;
END-ISO-10303-21;
