ISO-10303-21;
HEADER;
FILE_DESCRIPTION (( 'STEP AP203' ),
    '1' );
FILE_NAME ('8214.STEP',
    '2022-07-07T10:18:07',
    ( '' ),
    ( '' ),
    'SwSTEP 2.0',
    'SolidWorks 2019',
    '' );
FILE_SCHEMA (( 'CONFIG_CONTROL_DESIGN' ));
ENDSEC;

DATA;
#1 = CARTESIAN_POINT ( 'NONE',  ( 2.600000000000000089, 3.184081677783118191E-16, 128.0000000000000000 ) ) ;
#2 = PERSON_AND_ORGANIZATION ( #197, #201 ) ;
#3 = CARTESIAN_POINT ( 'NONE',  ( 0.000000000000000000, 0.000000000000000000, 3.000000000000000000 ) ) ;
#4 = AXIS2_PLACEMENT_3D ( 'NONE', #242, #244, #25 ) ;
#5 = APPROVAL_ROLE ( '' ) ;
#6 = DATE_AND_TIME ( #269, #74 ) ;
#7 = ADVANCED_FACE ( 'NONE', ( #212 ), #271, .F. ) ;
#8 = APPROVAL ( #68, 'NEURÈENÝ' ) ;
#9 = AXIS2_PLACEMENT_3D ( 'NONE', #190, #38, #65 ) ;
#10 = AXIS2_PLACEMENT_3D ( 'NONE', #221, #220, #73 ) ;
#11 = ORIENTED_EDGE ( 'NONE', *, *, #90, .F. ) ;
#12 = DIRECTION ( 'NONE',  ( 1.000000000000000000, 0.000000000000000000, 0.000000000000000000 ) ) ;
#13 = LOCAL_TIME ( 12, 18, 7.000000000000000000, #130 ) ;
#14 = DIRECTION ( 'NONE',  ( 1.000000000000000000, 0.000000000000000000, 0.000000000000000000 ) ) ;
#15 = APPROVAL ( #286, 'NEURÈENÝ' ) ;
#16 = CARTESIAN_POINT ( 'NONE',  ( 2.600000000000000089, 3.184081677783118191E-16, 128.0000000000000000 ) ) ;
#17 = DIRECTION ( 'NONE',  ( 1.000000000000000000, 0.000000000000000000, 0.000000000000000000 ) ) ;
#18 = CIRCLE ( 'NONE', #293, 2.600000000000000089 ) ;
#19 = APPROVAL_PERSON_ORGANIZATION ( #195, #105, #5 ) ;
#20 = DIRECTION ( 'NONE',  ( 0.000000000000000000, 0.000000000000000000, 1.000000000000000000 ) ) ;
#21 = COORDINATED_UNIVERSAL_TIME_OFFSET ( 1, 0, .AHEAD. ) ;
#22 = PLANE ( 'NONE',  #236 ) ;
#23 = CARTESIAN_POINT ( 'NONE',  ( 2.799999999999999822, 0.000000000000000000, 3.199999999999994404 ) ) ;
#24 = CIRCLE ( 'NONE', #207, 5.000000000000000000 ) ;
#25 = DIRECTION ( 'NONE',  ( 1.000000000000000000, 0.000000000000000000, 0.000000000000000000 ) ) ;
#26 = DIRECTION ( 'NONE',  ( -1.000000000000000000, 0.000000000000000000, 0.000000000000000000 ) ) ;
#27 = CALENDAR_DATE ( 2022, 7, 7 ) ;
#28 = CARTESIAN_POINT ( 'NONE',  ( 0.000000000000000000, 0.000000000000000000, 3.000000000000000000 ) ) ;
#29 = DATE_AND_TIME ( #31, #34 ) ;
#30 =( LENGTH_UNIT ( ) NAMED_UNIT ( * ) SI_UNIT ( .MILLI., .METRE. ) );
#31 = CALENDAR_DATE ( 2022, 7, 7 ) ;
#32 = ORIENTED_EDGE ( 'NONE', *, *, #79, .F. ) ;
#33 = ORIENTED_EDGE ( 'NONE', *, *, #102, .F. ) ;
#34 = LOCAL_TIME ( 12, 18, 7.000000000000000000, #246 ) ;
#35 = EDGE_LOOP ( 'NONE', ( #208, #143, #187, #272 ) ) ;
#36 = EDGE_LOOP ( 'NONE', ( #255, #274, #139, #290 ) ) ;
#37 = VERTEX_POINT ( 'NONE', #145 ) ;
#38 = DIRECTION ( 'NONE',  ( -0.000000000000000000, -0.000000000000000000, -1.000000000000000000 ) ) ;
#39 = COORDINATED_UNIVERSAL_TIME_OFFSET ( 1, 0, .AHEAD. ) ;
#40 = ORIENTED_EDGE ( 'NONE', *, *, #85, .T. ) ;
#41 = CC_DESIGN_APPROVAL ( #105, ( #136 ) ) ;
#42 = LINE ( 'NONE', #176, #49 ) ;
#43 = DATE_AND_TIME ( #27, #119 ) ;
#44 = DIRECTION ( 'NONE',  ( 1.000000000000000000, 0.000000000000000000, -0.000000000000000000 ) ) ;
#45 = CC_DESIGN_PERSON_AND_ORGANIZATION_ASSIGNMENT ( #52, #193, ( #144 ) ) ;
#46 = CARTESIAN_POINT ( 'NONE',  ( 0.000000000000000000, 0.000000000000000000, 128.0000000000000000 ) ) ;
#47 = VECTOR ( 'NONE', #61, 1000.000000000000000 ) ;
#48 = DIRECTION ( 'NONE',  ( 0.000000000000000000, 0.000000000000000000, 1.000000000000000000 ) ) ;
#49 = VECTOR ( 'NONE', #281, 1000.000000000000000 ) ;
#50 = ADVANCED_FACE ( 'NONE', ( #173, #110 ), #149, .T. ) ;
#51 = CARTESIAN_POINT ( 'NONE',  ( -5.000000000000000000, 0.000000000000000000, 0.000000000000000000 ) ) ;
#52 = PERSON_AND_ORGANIZATION ( #197, #201 ) ;
#53 = ORIENTED_EDGE ( 'NONE', *, *, #85, .F. ) ;
#54 = AXIS2_PLACEMENT_3D ( 'NONE', #304, #48, #307 ) ;
#55 = ORIENTED_EDGE ( 'NONE', *, *, #289, .T. ) ;
#56 = PRODUCT_RELATED_PRODUCT_CATEGORY ( 'detail', '', ( #273 ) ) ;
#57 = EDGE_LOOP ( 'NONE', ( #40, #147 ) ) ;
#58 = EDGE_CURVE ( 'NONE', #163, #292, #232, .T. ) ;
#59 = AXIS2_PLACEMENT_3D ( 'NONE', #3, #178, #97 ) ;
#60 = ORIENTED_EDGE ( 'NONE', *, *, #108, .F. ) ;
#61 = DIRECTION ( 'NONE',  ( -0.000000000000000000, -0.000000000000000000, -1.000000000000000000 ) ) ;
#62 = CC_DESIGN_DATE_AND_TIME_ASSIGNMENT ( #261, #234, ( #136 ) ) ;
#63 = CIRCLE ( 'NONE', #241, 5.000000000000000000 ) ;
#64 = ORIENTED_EDGE ( 'NONE', *, *, #92, .T. ) ;
#65 = DIRECTION ( 'NONE',  ( 1.000000000000000000, 0.000000000000000000, 0.000000000000000000 ) ) ;
#66 = CARTESIAN_POINT ( 'NONE',  ( 0.000000000000000000, 0.000000000000000000, 3.199999999999994404 ) ) ;
#67 = ORIENTED_EDGE ( 'NONE', *, *, #157, .T. ) ;
#68 = APPROVAL_STATUS ( 'not_yet_approved' ) ;
#69 = EDGE_CURVE ( 'NONE', #115, #89, #24, .T. ) ;
#70 = FACE_OUTER_BOUND ( 'NONE', #35, .T. ) ;
#71 = CARTESIAN_POINT ( 'NONE',  ( 5.000000000000000000, 6.123233995736766282E-16, 3.000000000000000000 ) ) ;
#72 = DIRECTION ( 'NONE',  ( -1.000000000000000000, 0.000000000000000000, 0.000000000000000000 ) ) ;
#73 = DIRECTION ( 'NONE',  ( 1.000000000000000000, 0.000000000000000000, -0.000000000000000000 ) ) ;
#74 = LOCAL_TIME ( 12, 18, 7.000000000000000000, #39 ) ;
#75 = COORDINATED_UNIVERSAL_TIME_OFFSET ( 1, 0, .AHEAD. ) ;
#76 = EDGE_CURVE ( 'NONE', #299, #163, #18, .T. ) ;
#77 = CARTESIAN_POINT ( 'NONE',  ( -2.600000000000000089, 0.000000000000000000, 128.0000000000000000 ) ) ;
#78 = PERSON_AND_ORGANIZATION_ROLE ( 'creator' ) ;
#79 = EDGE_CURVE ( 'NONE', #89, #115, #63, .T. ) ;
#80 = AXIS2_PLACEMENT_3D ( 'NONE', #257, #113, #213 ) ;
#81 = EDGE_LOOP ( 'NONE', ( #107, #32, #226, #251 ) ) ;
#82 = APPROVAL_PERSON_ORGANIZATION ( #247, #15, #158 ) ;
#83 = ORIENTED_EDGE ( 'NONE', *, *, #69, .F. ) ;
#84 = CARTESIAN_POINT ( 'NONE',  ( 0.000000000000000000, 0.000000000000000000, 128.0000000000000000 ) ) ;
#85 = EDGE_CURVE ( 'NONE', #301, #117, #109, .T. ) ;
#86 = AXIS2_PLACEMENT_3D ( 'NONE', #233, #169, #192 ) ;
#87 = ORIENTED_EDGE ( 'NONE', *, *, #289, .F. ) ;
#88 = CARTESIAN_POINT ( 'NONE',  ( 0.000000000000000000, 0.000000000000000000, 3.000000000000000000 ) ) ;
#89 = VERTEX_POINT ( 'NONE', #296 ) ;
#90 = EDGE_CURVE ( 'NONE', #89, #165, #170, .T. ) ;
#91 = DIRECTION ( 'NONE',  ( 0.000000000000000000, 0.000000000000000000, 1.000000000000000000 ) ) ;
#92 = EDGE_CURVE ( 'NONE', #37, #165, #227, .T. ) ;
#93 = DIRECTION ( 'NONE',  ( 1.224646799147353207E-16, 1.000000000000000000, -0.000000000000000000 ) ) ;
#94 = FACE_OUTER_BOUND ( 'NONE', #167, .T. ) ;
#95 = DIRECTION ( 'NONE',  ( 1.000000000000000000, 0.000000000000000000, 0.000000000000000000 ) ) ;
#96 = DATE_AND_TIME ( #128, #13 ) ;
#97 = DIRECTION ( 'NONE',  ( -1.000000000000000000, 0.000000000000000000, 0.000000000000000000 ) ) ;
#98 = CIRCLE ( 'NONE', #210, 0.2000000000000000944 ) ;
#99 = PERSON_AND_ORGANIZATION ( #197, #201 ) ;
#100 = EDGE_LOOP ( 'NONE', ( #106, #294 ) ) ;
#101 = APPROVAL_DATE_TIME ( #43, #8 ) ;
#102 = EDGE_CURVE ( 'NONE', #299, #229, #235, .T. ) ;
#103 = EDGE_LOOP ( 'NONE', ( #166, #55 ) ) ;
#104 = CC_DESIGN_PERSON_AND_ORGANIZATION_ASSIGNMENT ( #99, #302, ( #136 ) ) ;
#105 = APPROVAL ( #258, 'NEURÈENÝ' ) ;
#106 = ORIENTED_EDGE ( 'NONE', *, *, #79, .T. ) ;
#107 = ORIENTED_EDGE ( 'NONE', *, *, #157, .F. ) ;
#108 = EDGE_CURVE ( 'NONE', #229, #292, #137, .T. ) ;
#109 = CIRCLE ( 'NONE', #9, 2.799999999999999822 ) ;
#110 = FACE_OUTER_BOUND ( 'NONE', #100, .T. ) ;
#111 = AXIS2_PLACEMENT_3D ( 'NONE', #306, #283, #26 ) ;
#112 = ADVANCED_FACE ( 'NONE', ( #198 ), #116, .F. ) ;
#113 = DIRECTION ( 'NONE',  ( 0.000000000000000000, 0.000000000000000000, 1.000000000000000000 ) ) ;
#114 = ADVANCED_FACE ( 'NONE', ( #181 ), #217, .F. ) ;
#115 = VERTEX_POINT ( 'NONE', #71 ) ;
#116 = TOROIDAL_SURFACE ( 'NONE', #174, 2.799999999999999822, 0.2000000000000000111 ) ;
#117 = VERTEX_POINT ( 'NONE', #268 ) ;
#118 = ADVANCED_FACE ( 'NONE', ( #70 ), #284, .T. ) ;
#119 = LOCAL_TIME ( 12, 18, 7.000000000000000000, #75 ) ;
#120 = CARTESIAN_POINT ( 'NONE',  ( 0.000000000000000000, 0.000000000000000000, 0.000000000000000000 ) ) ;
#121 = ORIENTED_EDGE ( 'NONE', *, *, #206, .T. ) ;
#122 = PERSON_AND_ORGANIZATION_ROLE ( 'design_owner' ) ;
#123 = CARTESIAN_POINT ( 'NONE',  ( 0.000000000000000000, 0.000000000000000000, 128.0000000000000000 ) ) ;
#124 = DIRECTION ( 'NONE',  ( 0.000000000000000000, -1.000000000000000000, 0.000000000000000000 ) ) ;
#125 =( GEOMETRIC_REPRESENTATION_CONTEXT ( 3 ) GLOBAL_UNCERTAINTY_ASSIGNED_CONTEXT ( ( #298 ) ) GLOBAL_UNIT_ASSIGNED_CONTEXT ( ( #30, #131, #133 ) ) REPRESENTATION_CONTEXT ( 'NONE', 'WORKASPACE' ) );
#126 = CYLINDRICAL_SURFACE ( 'NONE', #59, 5.000000000000000000 ) ;
#127 = FACE_OUTER_BOUND ( 'NONE', #81, .T. ) ;
#128 = CALENDAR_DATE ( 2022, 7, 7 ) ;
#129 = DIRECTION ( 'NONE',  ( -0.000000000000000000, -0.000000000000000000, -1.000000000000000000 ) ) ;
#130 = COORDINATED_UNIVERSAL_TIME_OFFSET ( 1, 0, .AHEAD. ) ;
#131 =( NAMED_UNIT ( * ) PLANE_ANGLE_UNIT ( ) SI_UNIT ( $, .RADIAN. ) );
#132 = CC_DESIGN_APPROVAL ( #15, ( #161 ) ) ;
#133 =( NAMED_UNIT ( * ) SI_UNIT ( $, .STERADIAN. ) SOLID_ANGLE_UNIT ( ) );
#134 = EDGE_CURVE ( 'NONE', #292, #229, #267, .T. ) ;
#135 = CC_DESIGN_PERSON_AND_ORGANIZATION_ASSIGNMENT ( #152, #239, ( #161 ) ) ;
#136 = PRODUCT_DEFINITION ( 'NEZNÁMÝ', '', #144, #142 ) ;
#137 = CIRCLE ( 'NONE', #179, 2.600000000000000089 ) ;
#138 = AXIS2_PLACEMENT_3D ( 'NONE', #23, #124, #196 ) ;
#139 = ORIENTED_EDGE ( 'NONE', *, *, #228, .T. ) ;
#140 = ORIENTED_EDGE ( 'NONE', *, *, #58, .T. ) ;
#141 = ADVANCED_FACE ( 'NONE', ( #218 ), #151, .T. ) ;
#142 = DESIGN_CONTEXT ( 'detailed design', #215, 'design' ) ;
#143 = ORIENTED_EDGE ( 'NONE', *, *, #76, .F. ) ;
#144 = PRODUCT_DEFINITION_FORMATION_WITH_SPECIFIED_SOURCE ( 'LIBOVOLNÝ', '', #273, .NOT_KNOWN. ) ;
#145 = CARTESIAN_POINT ( 'NONE',  ( 5.000000000000000000, 6.123233995736766282E-16, 0.000000000000000000 ) ) ;
#146 = MANIFOLD_SOLID_BREP ( 'Zaoblit1', #168 ) ;
#147 = ORIENTED_EDGE ( 'NONE', *, *, #183, .T. ) ;
#148 = PERSON_AND_ORGANIZATION ( #197, #201 ) ;
#149 = PLANE ( 'NONE',  #80 ) ;
#150 = AXIS2_PLACEMENT_3D ( 'NONE', #123, #262, #153 ) ;
#151 = CYLINDRICAL_SURFACE ( 'NONE', #150, 2.600000000000000089 ) ;
#152 = PERSON_AND_ORGANIZATION ( #197, #201 ) ;
#153 = DIRECTION ( 'NONE',  ( -1.000000000000000000, 0.000000000000000000, 0.000000000000000000 ) ) ;
#154 = CARTESIAN_POINT ( 'NONE',  ( 0.000000000000000000, 0.000000000000000000, 3.000000000000000000 ) ) ;
#155 = CYLINDRICAL_SURFACE ( 'NONE', #250, 5.000000000000000000 ) ;
#156 = DIRECTION ( 'NONE',  ( 1.000000000000000000, 0.000000000000000000, 0.000000000000000000 ) ) ;
#157 = EDGE_CURVE ( 'NONE', #115, #37, #42, .T. ) ;
#158 = APPROVAL_ROLE ( '' ) ;
#159 = EDGE_CURVE ( 'NONE', #165, #37, #243, .T. ) ;
#160 = APPLICATION_PROTOCOL_DEFINITION ( 'international standard', 'config_control_design', 1994, #203 ) ;
#161 = SECURITY_CLASSIFICATION ( '', '', #288 ) ;
#162 = ADVANCED_BREP_SHAPE_REPRESENTATION ( '8214', ( #146, #230 ), #125 ) ;
#163 = VERTEX_POINT ( 'NONE', #1 ) ;
#164 = ORIENTED_EDGE ( 'NONE', *, *, #159, .F. ) ;
#165 = VERTEX_POINT ( 'NONE', #51 ) ;
#166 = ORIENTED_EDGE ( 'NONE', *, *, #76, .T. ) ;
#167 = EDGE_LOOP ( 'NONE', ( #83, #67, #64, #11 ) ) ;
#168 = CLOSED_SHELL ( 'NONE', ( #7, #141, #275, #291, #50, #114, #118, #186, #112 ) ) ;
#169 = DIRECTION ( 'NONE',  ( 0.000000000000000000, 0.000000000000000000, 1.000000000000000000 ) ) ;
#170 = LINE ( 'NONE', #256, #47 ) ;
#171 = ORIENTED_EDGE ( 'NONE', *, *, #134, .T. ) ;
#172 = MECHANICAL_CONTEXT ( 'NONE', #203, 'mechanical' ) ;
#173 = FACE_BOUND ( 'NONE', #57, .T. ) ;
#174 = AXIS2_PLACEMENT_3D ( 'NONE', #175, #238, #95 ) ;
#175 = CARTESIAN_POINT ( 'NONE',  ( 0.000000000000000000, 0.000000000000000000, 3.199999999999994404 ) ) ;
#176 = CARTESIAN_POINT ( 'NONE',  ( 5.000000000000000000, 6.123233995736766282E-16, 3.000000000000000000 ) ) ;
#177 = CC_DESIGN_DATE_AND_TIME_ASSIGNMENT ( #96, #200, ( #161 ) ) ;
#178 = DIRECTION ( 'NONE',  ( -0.000000000000000000, -0.000000000000000000, -1.000000000000000000 ) ) ;
#179 = AXIS2_PLACEMENT_3D ( 'NONE', #66, #20, #253 ) ;
#180 = APPROVAL_PERSON_ORGANIZATION ( #2, #8, #204 ) ;
#181 = FACE_OUTER_BOUND ( 'NONE', #249, .T. ) ;
#182 = DIRECTION ( 'NONE',  ( 0.000000000000000000, 0.000000000000000000, 1.000000000000000000 ) ) ;
#183 = EDGE_CURVE ( 'NONE', #117, #301, #282, .T. ) ;
#184 = CARTESIAN_POINT ( 'NONE',  ( 2.799999999999999822, 0.000000000000000000, 2.999999999999997335 ) ) ;
#185 = APPROVAL_DATE_TIME ( #29, #15 ) ;
#186 = ADVANCED_FACE ( 'NONE', ( #285 ), #22, .T. ) ;
#187 = ORIENTED_EDGE ( 'NONE', *, *, #102, .T. ) ;
#188 = DIRECTION ( 'NONE',  ( 0.000000000000000000, 0.000000000000000000, 1.000000000000000000 ) ) ;
#189 = CC_DESIGN_PERSON_AND_ORGANIZATION_ASSIGNMENT ( #148, #122, ( #273 ) ) ;
#190 = CARTESIAN_POINT ( 'NONE',  ( 0.000000000000000000, 0.000000000000000000, 3.000000000000000000 ) ) ;
#191 = DIRECTION ( 'NONE',  ( 0.000000000000000000, 0.000000000000000000, 1.000000000000000000 ) ) ;
#192 = DIRECTION ( 'NONE',  ( 1.000000000000000000, 0.000000000000000000, 0.000000000000000000 ) ) ;
#193 = PERSON_AND_ORGANIZATION_ROLE ( 'design_supplier' ) ;
#194 = ORIENTED_EDGE ( 'NONE', *, *, #228, .F. ) ;
#195 = PERSON_AND_ORGANIZATION ( #197, #201 ) ;
#196 = DIRECTION ( 'NONE',  ( 0.000000000000000000, 0.000000000000000000, -1.000000000000000000 ) ) ;
#197 = PERSON ( 'NEURÈENÝ', 'NEURÈENÝ', 'NEURÈENÝ', ('NEURÈENÝ'), ('NEURÈENÝ'), ('NEURÈENÝ') ) ;
#198 = FACE_OUTER_BOUND ( 'NONE', #36, .T. ) ;
#199 = DIRECTION ( 'NONE',  ( -0.000000000000000000, -0.000000000000000000, -1.000000000000000000 ) ) ;
#200 = DATE_TIME_ROLE ( 'classification_date' ) ;
#201 = ORGANIZATION ( 'NEURÈENÝ', 'NEURÈENÝ', '' ) ;
#202 = CARTESIAN_POINT ( 'NONE',  ( -2.600000000000000089, 0.000000000000000000, 3.199999999999994404 ) ) ;
#203 = APPLICATION_CONTEXT ( 'configuration controlled 3d designs of mechanical parts and assemblies' ) ;
#204 = APPROVAL_ROLE ( '' ) ;
#205 = PERSON_AND_ORGANIZATION ( #197, #201 ) ;
#206 = EDGE_CURVE ( 'NONE', #229, #117, #98, .T. ) ;
#207 = AXIS2_PLACEMENT_3D ( 'NONE', #88, #191, #17 ) ;
#208 = ORIENTED_EDGE ( 'NONE', *, *, #58, .F. ) ;
#209 = EDGE_LOOP ( 'NONE', ( #60, #121, #53, #194 ) ) ;
#210 = AXIS2_PLACEMENT_3D ( 'NONE', #245, #93, #223 ) ;
#211 = DIRECTION ( 'NONE',  ( 0.000000000000000000, 0.000000000000000000, 1.000000000000000000 ) ) ;
#212 = FACE_OUTER_BOUND ( 'NONE', #209, .T. ) ;
#213 = DIRECTION ( 'NONE',  ( 1.000000000000000000, 0.000000000000000000, -0.000000000000000000 ) ) ;
#214 = EDGE_LOOP ( 'NONE', ( #87, #140, #171, #33 ) ) ;
#215 = APPLICATION_CONTEXT ( 'configuration controlled 3d designs of mechanical parts and assemblies' ) ;
#216 = CALENDAR_DATE ( 2022, 7, 7 ) ;
#217 = PLANE ( 'NONE',  #10 ) ;
#218 = FACE_OUTER_BOUND ( 'NONE', #214, .T. ) ;
#219 = AXIS2_PLACEMENT_3D ( 'NONE', #266, #240, #156 ) ;
#220 = DIRECTION ( 'NONE',  ( 0.000000000000000000, 0.000000000000000000, 1.000000000000000000 ) ) ;
#221 = CARTESIAN_POINT ( 'NONE',  ( 0.000000000000000000, 0.000000000000000000, 0.000000000000000000 ) ) ;
#222 = DIRECTION ( 'NONE',  ( 1.000000000000000000, 0.000000000000000000, 0.000000000000000000 ) ) ;
#223 = DIRECTION ( 'NONE',  ( -1.000000000000000000, 1.224646799147353207E-16, 0.000000000000000000 ) ) ;
#224 = AXIS2_PLACEMENT_3D ( 'NONE', #276, #211, #12 ) ;
#225 = LOCAL_TIME ( 12, 18, 7.000000000000000000, #21 ) ;
#226 = ORIENTED_EDGE ( 'NONE', *, *, #90, .T. ) ;
#227 = CIRCLE ( 'NONE', #86, 5.000000000000000000 ) ;
#228 = EDGE_CURVE ( 'NONE', #292, #301, #254, .T. ) ;
#229 = VERTEX_POINT ( 'NONE', #202 ) ;
#230 = AXIS2_PLACEMENT_3D ( 'NONE', #120, #182, #222 ) ;
#231 = CARTESIAN_POINT ( 'NONE',  ( 0.000000000000000000, 0.000000000000000000, 3.000000000000000000 ) ) ;
#232 = LINE ( 'NONE', #16, #305 ) ;
#233 = CARTESIAN_POINT ( 'NONE',  ( 0.000000000000000000, 0.000000000000000000, 0.000000000000000000 ) ) ;
#234 = DATE_TIME_ROLE ( 'creation_date' ) ;
#235 = LINE ( 'NONE', #297, #265 ) ;
#236 = AXIS2_PLACEMENT_3D ( 'NONE', #46, #91, #44 ) ;
#237 = APPROVAL_DATE_TIME ( #6, #105 ) ;
#238 = DIRECTION ( 'NONE',  ( 0.000000000000000000, 0.000000000000000000, 1.000000000000000000 ) ) ;
#239 = PERSON_AND_ORGANIZATION_ROLE ( 'classification_officer' ) ;
#240 = DIRECTION ( 'NONE',  ( 0.000000000000000000, 0.000000000000000000, 1.000000000000000000 ) ) ;
#241 = AXIS2_PLACEMENT_3D ( 'NONE', #231, #188, #14 ) ;
#242 = CARTESIAN_POINT ( 'NONE',  ( 0.000000000000000000, 0.000000000000000000, 128.0000000000000000 ) ) ;
#243 = CIRCLE ( 'NONE', #54, 5.000000000000000000 ) ;
#244 = DIRECTION ( 'NONE',  ( 0.000000000000000000, 0.000000000000000000, 1.000000000000000000 ) ) ;
#245 = CARTESIAN_POINT ( 'NONE',  ( -2.799999999999999822, 3.429011037612588783E-16, 3.199999999999994404 ) ) ;
#246 = COORDINATED_UNIVERSAL_TIME_OFFSET ( 1, 0, .AHEAD. ) ;
#247 = PERSON_AND_ORGANIZATION ( #197, #201 ) ;
#248 = CIRCLE ( 'NONE', #4, 2.600000000000000089 ) ;
#249 = EDGE_LOOP ( 'NONE', ( #164, #279 ) ) ;
#250 = AXIS2_PLACEMENT_3D ( 'NONE', #154, #129, #72 ) ;
#251 = ORIENTED_EDGE ( 'NONE', *, *, #159, .T. ) ;
#252 = PRODUCT_DEFINITION_SHAPE ( 'NONE', 'NONE',  #136 ) ;
#253 = DIRECTION ( 'NONE',  ( 1.000000000000000000, 0.000000000000000000, 0.000000000000000000 ) ) ;
#254 = CIRCLE ( 'NONE', #138, 0.2000000000000000944 ) ;
#255 = ORIENTED_EDGE ( 'NONE', *, *, #206, .F. ) ;
#256 = CARTESIAN_POINT ( 'NONE',  ( -5.000000000000000000, 0.000000000000000000, 3.000000000000000000 ) ) ;
#257 = CARTESIAN_POINT ( 'NONE',  ( 0.000000000000000000, 0.000000000000000000, 3.000000000000000000 ) ) ;
#258 = APPROVAL_STATUS ( 'not_yet_approved' ) ;
#259 = DIRECTION ( 'NONE',  ( 0.000000000000000000, 0.000000000000000000, 1.000000000000000000 ) ) ;
#260 = CC_DESIGN_APPROVAL ( #8, ( #144 ) ) ;
#261 = DATE_AND_TIME ( #216, #225 ) ;
#262 = DIRECTION ( 'NONE',  ( -0.000000000000000000, -0.000000000000000000, -1.000000000000000000 ) ) ;
#263 = CC_DESIGN_PERSON_AND_ORGANIZATION_ASSIGNMENT ( #205, #78, ( #144 ) ) ;
#264 = DIRECTION ( 'NONE',  ( 1.000000000000000000, 0.000000000000000000, 0.000000000000000000 ) ) ;
#265 = VECTOR ( 'NONE', #278, 1000.000000000000000 ) ;
#266 = CARTESIAN_POINT ( 'NONE',  ( 0.000000000000000000, 0.000000000000000000, 3.199999999999994404 ) ) ;
#267 = CIRCLE ( 'NONE', #219, 2.600000000000000089 ) ;
#268 = CARTESIAN_POINT ( 'NONE',  ( -2.799999999999999822, 3.429011037612589276E-16, 2.999999999999997335 ) ) ;
#269 = CALENDAR_DATE ( 2022, 7, 7 ) ;
#270 = SHAPE_DEFINITION_REPRESENTATION ( #252, #162 ) ;
#271 = TOROIDAL_SURFACE ( 'NONE', #224, 2.799999999999999822, 0.2000000000000000111 ) ;
#272 = ORIENTED_EDGE ( 'NONE', *, *, #108, .T. ) ;
#273 = PRODUCT ( '8214', '8214', '', ( #172 ) ) ;
#274 = ORIENTED_EDGE ( 'NONE', *, *, #134, .F. ) ;
#275 = ADVANCED_FACE ( 'NONE', ( #94 ), #155, .T. ) ;
#276 = CARTESIAN_POINT ( 'NONE',  ( 0.000000000000000000, 0.000000000000000000, 3.199999999999994404 ) ) ;
#277 = DIRECTION ( 'NONE',  ( 1.000000000000000000, 0.000000000000000000, 0.000000000000000000 ) ) ;
#278 = DIRECTION ( 'NONE',  ( -0.000000000000000000, -0.000000000000000000, -1.000000000000000000 ) ) ;
#279 = ORIENTED_EDGE ( 'NONE', *, *, #92, .F. ) ;
#280 = APPLICATION_PROTOCOL_DEFINITION ( 'international standard', 'config_control_design', 1994, #215 ) ;
#281 = DIRECTION ( 'NONE',  ( -0.000000000000000000, -0.000000000000000000, -1.000000000000000000 ) ) ;
#282 = CIRCLE ( 'NONE', #300, 2.799999999999999822 ) ;
#283 = DIRECTION ( 'NONE',  ( -0.000000000000000000, -0.000000000000000000, -1.000000000000000000 ) ) ;
#284 = CYLINDRICAL_SURFACE ( 'NONE', #111, 2.600000000000000089 ) ;
#285 = FACE_OUTER_BOUND ( 'NONE', #103, .T. ) ;
#286 = APPROVAL_STATUS ( 'not_yet_approved' ) ;
#287 = CARTESIAN_POINT ( 'NONE',  ( 2.600000000000000089, 3.184081677783118191E-16, 3.199999999999994404 ) ) ;
#288 = SECURITY_CLASSIFICATION_LEVEL ( 'unclassified' ) ;
#289 = EDGE_CURVE ( 'NONE', #163, #299, #248, .T. ) ;
#290 = ORIENTED_EDGE ( 'NONE', *, *, #183, .F. ) ;
#291 = ADVANCED_FACE ( 'NONE', ( #127 ), #126, .T. ) ;
#292 = VERTEX_POINT ( 'NONE', #287 ) ;
#293 = AXIS2_PLACEMENT_3D ( 'NONE', #84, #259, #277 ) ;
#294 = ORIENTED_EDGE ( 'NONE', *, *, #69, .T. ) ;
#295 = CC_DESIGN_SECURITY_CLASSIFICATION ( #161, ( #144 ) ) ;
#296 = CARTESIAN_POINT ( 'NONE',  ( -5.000000000000000000, 0.000000000000000000, 3.000000000000000000 ) ) ;
#297 = CARTESIAN_POINT ( 'NONE',  ( -2.600000000000000089, 0.000000000000000000, 128.0000000000000000 ) ) ;
#298 = UNCERTAINTY_MEASURE_WITH_UNIT (LENGTH_MEASURE( 1.000000000000000082E-05 ), #30, 'distance_accuracy_value', 'NONE');
#299 = VERTEX_POINT ( 'NONE', #77 ) ;
#300 = AXIS2_PLACEMENT_3D ( 'NONE', #28, #199, #264 ) ;
#301 = VERTEX_POINT ( 'NONE', #184 ) ;
#302 = PERSON_AND_ORGANIZATION_ROLE ( 'creator' ) ;
#303 = DIRECTION ( 'NONE',  ( -0.000000000000000000, -0.000000000000000000, -1.000000000000000000 ) ) ;
#304 = CARTESIAN_POINT ( 'NONE',  ( 0.000000000000000000, 0.000000000000000000, 0.000000000000000000 ) ) ;
#305 = VECTOR ( 'NONE', #303, 1000.000000000000000 ) ;
#306 = CARTESIAN_POINT ( 'NONE',  ( 0.000000000000000000, 0.000000000000000000, 128.0000000000000000 ) ) ;
#307 = DIRECTION ( 'NONE',  ( 1.000000000000000000, 0.000000000000000000, 0.000000000000000000 ) ) ;
ENDSEC;
END-ISO-10303-21;
