ISO-10303-21;
HEADER;
FILE_DESCRIPTION (( 'STEP AP203' ),
    '1' );
FILE_NAME ('220c.STEP',
    '2023-02-12T12:43:24',
    ( '' ),
    ( '' ),
    'SwSTEP 2.0',
    'SolidWorks 2019',
    '' );
FILE_SCHEMA (( 'CONFIG_CONTROL_DESIGN' ));
ENDSEC;

DATA;
#1 = DIRECTION ( 'NONE',  ( 1.000000000000000000, 0.000000000000000000, 0.000000000000000000 ) ) ;
#2 = DIRECTION ( 'NONE',  ( -1.000000000000000000, 0.000000000000000000, 0.000000000000000000 ) ) ;
#3 = PRODUCT ( '220c', '220c', '', ( #64 ) ) ;
#4 =( GEOMETRIC_REPRESENTATION_CONTEXT ( 3 ) GLOBAL_UNCERTAINTY_ASSIGNED_CONTEXT ( ( #193 ) ) GLOBAL_UNIT_ASSIGNED_CONTEXT ( ( #141, #164, #22 ) ) REPRESENTATION_CONTEXT ( 'NONE', 'WORKASPACE' ) );
#5 = AXIS2_PLACEMENT_3D ( 'NONE', #138, #197, #154 ) ;
#6 = PERSON_AND_ORGANIZATION_ROLE ( 'creator' ) ;
#7 = PERSON_AND_ORGANIZATION_ROLE ( 'design_supplier' ) ;
#8 = CARTESIAN_POINT ( 'NONE',  ( 1.600000000000000089, 1.959434878635765230E-16, 3.000000000000000000 ) ) ;
#9 = CALENDAR_DATE ( 2023, 12, 2 ) ;
#10 = ORIENTED_EDGE ( 'NONE', *, *, #99, .T. ) ;
#11 = VERTEX_POINT ( 'NONE', #131 ) ;
#12 = EDGE_CURVE ( 'NONE', #133, #11, #242, .T. ) ;
#13 = ORIENTED_EDGE ( 'NONE', *, *, #174, .F. ) ;
#14 = CIRCLE ( 'NONE', #132, 1.600000000000000089 ) ;
#15 = DIRECTION ( 'NONE',  ( -0.000000000000000000, -0.000000000000000000, -1.000000000000000000 ) ) ;
#16 = CARTESIAN_POINT ( 'NONE',  ( 0.000000000000000000, 0.000000000000000000, 3.000000000000000000 ) ) ;
#17 = CARTESIAN_POINT ( 'NONE',  ( 0.000000000000000000, 0.000000000000000000, 3.000000000000000000 ) ) ;
#18 = DIRECTION ( 'NONE',  ( 0.000000000000000000, 0.000000000000000000, 1.000000000000000000 ) ) ;
#19 = AXIS2_PLACEMENT_3D ( 'NONE', #83, #160, #233 ) ;
#20 = APPROVAL ( #106, 'NEURÈENÝ' ) ;
#21 = CARTESIAN_POINT ( 'NONE',  ( 0.000000000000000000, 0.000000000000000000, 3.000000000000000000 ) ) ;
#22 =( NAMED_UNIT ( * ) SI_UNIT ( $, .STERADIAN. ) SOLID_ANGLE_UNIT ( ) );
#23 = CC_DESIGN_PERSON_AND_ORGANIZATION_ASSIGNMENT ( #128, #7, ( #125 ) ) ;
#24 = LOCAL_TIME ( 13, 43, 24.00000000000000000, #152 ) ;
#25 = APPLICATION_PROTOCOL_DEFINITION ( 'international standard', 'config_control_design', 1994, #211 ) ;
#26 = VECTOR ( 'NONE', #179, 1000.000000000000000 ) ;
#27 = PERSON_AND_ORGANIZATION_ROLE ( 'creator' ) ;
#28 = LOCAL_TIME ( 13, 43, 24.00000000000000000, #247 ) ;
#29 = PERSON_AND_ORGANIZATION ( #44, #126 ) ;
#30 = ORIENTED_EDGE ( 'NONE', *, *, #150, .F. ) ;
#31 = ORIENTED_EDGE ( 'NONE', *, *, #214, .F. ) ;
#32 = DATE_TIME_ROLE ( 'classification_date' ) ;
#33 = CARTESIAN_POINT ( 'NONE',  ( 0.000000000000000000, 0.000000000000000000, 630.0000000000000000 ) ) ;
#34 = FACE_OUTER_BOUND ( 'NONE', #209, .T. ) ;
#35 = DIRECTION ( 'NONE',  ( 1.000000000000000000, 0.000000000000000000, -0.000000000000000000 ) ) ;
#36 = DIRECTION ( 'NONE',  ( -1.000000000000000000, 0.000000000000000000, 0.000000000000000000 ) ) ;
#37 = FACE_OUTER_BOUND ( 'NONE', #51, .T. ) ;
#38 = ADVANCED_FACE ( 'NONE', ( #34 ), #192, .F. ) ;
#39 = CARTESIAN_POINT ( 'NONE',  ( 3.000000000000000444, 3.673940397442060361E-16, 3.000000000000000000 ) ) ;
#40 = CARTESIAN_POINT ( 'NONE',  ( -3.000000000000000444, 0.000000000000000000, 3.000000000000000000 ) ) ;
#41 = CIRCLE ( 'NONE', #73, 3.000000000000000444 ) ;
#42 = CARTESIAN_POINT ( 'NONE',  ( -1.600000000000000089, 0.000000000000000000, 630.0000000000000000 ) ) ;
#43 = ADVANCED_FACE ( 'NONE', ( #187 ), #153, .T. ) ;
#44 = PERSON ( 'NEURÈENÝ', 'NEURÈENÝ', 'NEURÈENÝ', ('NEURÈENÝ'), ('NEURÈENÝ'), ('NEURÈENÝ') ) ;
#45 = EDGE_CURVE ( 'NONE', #11, #49, #113, .T. ) ;
#46 = CC_DESIGN_APPROVAL ( #84, ( #102 ) ) ;
#47 = COORDINATED_UNIVERSAL_TIME_OFFSET ( 1, 0, .AHEAD. ) ;
#48 = ORIENTED_EDGE ( 'NONE', *, *, #139, .F. ) ;
#49 = VERTEX_POINT ( 'NONE', #8 ) ;
#50 = DATE_TIME_ROLE ( 'creation_date' ) ;
#51 = EDGE_LOOP ( 'NONE', ( #147, #226, #249, #10 ) ) ;
#52 = AXIS2_PLACEMENT_3D ( 'NONE', #157, #215, #101 ) ;
#53 = DATE_AND_TIME ( #9, #28 ) ;
#54 = DIRECTION ( 'NONE',  ( 0.000000000000000000, 0.000000000000000000, 1.000000000000000000 ) ) ;
#55 = DATE_AND_TIME ( #108, #75 ) ;
#56 = DIRECTION ( 'NONE',  ( 0.000000000000000000, 0.000000000000000000, 1.000000000000000000 ) ) ;
#57 = DIRECTION ( 'NONE',  ( 1.000000000000000000, 0.000000000000000000, 0.000000000000000000 ) ) ;
#58 = EDGE_CURVE ( 'NONE', #225, #205, #245, .T. ) ;
#59 = APPROVAL ( #146, 'NEURÈENÝ' ) ;
#60 = DIRECTION ( 'NONE',  ( 1.000000000000000000, 0.000000000000000000, 0.000000000000000000 ) ) ;
#61 = CARTESIAN_POINT ( 'NONE',  ( 0.000000000000000000, 0.000000000000000000, 3.000000000000000000 ) ) ;
#62 = DIRECTION ( 'NONE',  ( 0.000000000000000000, 0.000000000000000000, 1.000000000000000000 ) ) ;
#63 = APPROVAL_PERSON_ORGANIZATION ( #227, #20, #206 ) ;
#64 = MECHANICAL_CONTEXT ( 'NONE', #211, 'mechanical' ) ;
#65 = ORIENTED_EDGE ( 'NONE', *, *, #139, .T. ) ;
#66 = CIRCLE ( 'NONE', #216, 3.000000000000000444 ) ;
#67 = PERSON_AND_ORGANIZATION_ROLE ( 'classification_officer' ) ;
#68 = ORIENTED_EDGE ( 'NONE', *, *, #99, .F. ) ;
#69 = CC_DESIGN_APPROVAL ( #59, ( #239 ) ) ;
#70 = ORIENTED_EDGE ( 'NONE', *, *, #174, .T. ) ;
#71 = CC_DESIGN_PERSON_AND_ORGANIZATION_ASSIGNMENT ( #29, #27, ( #102 ) ) ;
#72 = EDGE_LOOP ( 'NONE', ( #109, #93 ) ) ;
#73 = AXIS2_PLACEMENT_3D ( 'NONE', #180, #76, #60 ) ;
#74 = DIRECTION ( 'NONE',  ( 1.000000000000000000, 0.000000000000000000, -0.000000000000000000 ) ) ;
#75 = LOCAL_TIME ( 13, 43, 24.00000000000000000, #208 ) ;
#76 = DIRECTION ( 'NONE',  ( 0.000000000000000000, 0.000000000000000000, 1.000000000000000000 ) ) ;
#77 = ADVANCED_BREP_SHAPE_REPRESENTATION ( '220c', ( #158, #176 ), #4 ) ;
#78 = CARTESIAN_POINT ( 'NONE',  ( -3.000000000000000444, 0.000000000000000000, 0.000000000000000000 ) ) ;
#79 = APPLICATION_CONTEXT ( 'configuration controlled 3d designs of mechanical parts and assemblies' ) ;
#80 = PLANE ( 'NONE',  #52 ) ;
#81 = EDGE_CURVE ( 'NONE', #49, #175, #156, .T. ) ;
#82 = FACE_OUTER_BOUND ( 'NONE', #168, .T. ) ;
#83 = CARTESIAN_POINT ( 'NONE',  ( 0.000000000000000000, 0.000000000000000000, 630.0000000000000000 ) ) ;
#84 = APPROVAL ( #243, 'NEURÈENÝ' ) ;
#85 = PERSON_AND_ORGANIZATION_ROLE ( 'design_owner' ) ;
#86 = PRODUCT_RELATED_PRODUCT_CATEGORY ( 'detail', '', ( #3 ) ) ;
#87 = APPLICATION_PROTOCOL_DEFINITION ( 'international standard', 'config_control_design', 1994, #79 ) ;
#88 = AXIS2_PLACEMENT_3D ( 'NONE', #115, #62, #177 ) ;
#89 = ADVANCED_FACE ( 'NONE', ( #135, #122 ), #80, .T. ) ;
#90 = COORDINATED_UNIVERSAL_TIME_OFFSET ( 1, 0, .AHEAD. ) ;
#91 = EDGE_LOOP ( 'NONE', ( #165, #250, #170, #13 ) ) ;
#92 = DATE_AND_TIME ( #173, #24 ) ;
#93 = ORIENTED_EDGE ( 'NONE', *, *, #214, .T. ) ;
#94 = ORIENTED_EDGE ( 'NONE', *, *, #45, .F. ) ;
#95 = CARTESIAN_POINT ( 'NONE',  ( 0.000000000000000000, 0.000000000000000000, 0.000000000000000000 ) ) ;
#96 = CC_DESIGN_SECURITY_CLASSIFICATION ( #239, ( #125 ) ) ;
#97 = FACE_OUTER_BOUND ( 'NONE', #129, .T. ) ;
#98 = DIRECTION ( 'NONE',  ( -1.000000000000000000, 0.000000000000000000, 0.000000000000000000 ) ) ;
#99 = EDGE_CURVE ( 'NONE', #205, #189, #198, .T. ) ;
#100 = AXIS2_PLACEMENT_3D ( 'NONE', #155, #120, #36 ) ;
#101 = DIRECTION ( 'NONE',  ( 1.000000000000000000, 0.000000000000000000, -0.000000000000000000 ) ) ;
#102 = PRODUCT_DEFINITION ( 'NEZNÁMÝ', '', #125, #241 ) ;
#103 = LINE ( 'NONE', #39, #123 ) ;
#104 = DATE_AND_TIME ( #203, #183 ) ;
#105 = LOCAL_TIME ( 13, 43, 24.00000000000000000, #90 ) ;
#106 = APPROVAL_STATUS ( 'not_yet_approved' ) ;
#107 = ORIENTED_EDGE ( 'NONE', *, *, #244, .T. ) ;
#108 = CALENDAR_DATE ( 2023, 12, 2 ) ;
#109 = ORIENTED_EDGE ( 'NONE', *, *, #114, .T. ) ;
#110 = VECTOR ( 'NONE', #15, 1000.000000000000000 ) ;
#111 = PERSON_AND_ORGANIZATION ( #44, #126 ) ;
#112 = DIRECTION ( 'NONE',  ( 1.000000000000000000, 0.000000000000000000, 0.000000000000000000 ) ) ;
#113 = LINE ( 'NONE', #194, #110 ) ;
#114 = EDGE_CURVE ( 'NONE', #225, #229, #230, .T. ) ;
#115 = CARTESIAN_POINT ( 'NONE',  ( 0.000000000000000000, 0.000000000000000000, 0.000000000000000000 ) ) ;
#116 = CYLINDRICAL_SURFACE ( 'NONE', #221, 3.000000000000000444 ) ;
#117 = ADVANCED_FACE ( 'NONE', ( #37 ), #236, .T. ) ;
#118 = CARTESIAN_POINT ( 'NONE',  ( 0.000000000000000000, 0.000000000000000000, 3.000000000000000000 ) ) ;
#119 = CLOSED_SHELL ( 'NONE', ( #240, #166, #117, #89, #38, #219, #43 ) ) ;
#120 = DIRECTION ( 'NONE',  ( -0.000000000000000000, -0.000000000000000000, -1.000000000000000000 ) ) ;
#121 = APPROVAL_PERSON_ORGANIZATION ( #111, #59, #144 ) ;
#122 = FACE_OUTER_BOUND ( 'NONE', #72, .T. ) ;
#123 = VECTOR ( 'NONE', #178, 1000.000000000000000 ) ;
#124 = AXIS2_PLACEMENT_3D ( 'NONE', #232, #56, #35 ) ;
#125 = PRODUCT_DEFINITION_FORMATION_WITH_SPECIFIED_SOURCE ( 'LIBOVOLNÝ', '', #3, .NOT_KNOWN. ) ;
#126 = ORGANIZATION ( 'NEURÈENÝ', 'NEURÈENÝ', '' ) ;
#127 = DIRECTION ( 'NONE',  ( -0.000000000000000000, -0.000000000000000000, -1.000000000000000000 ) ) ;
#128 = PERSON_AND_ORGANIZATION ( #44, #126 ) ;
#129 = EDGE_LOOP ( 'NONE', ( #31, #149, #65, #248 ) ) ;
#130 = CALENDAR_DATE ( 2023, 12, 2 ) ;
#131 = CARTESIAN_POINT ( 'NONE',  ( 1.600000000000000089, 1.959434878635765230E-16, 630.0000000000000000 ) ) ;
#132 = AXIS2_PLACEMENT_3D ( 'NONE', #16, #200, #218 ) ;
#133 = VERTEX_POINT ( 'NONE', #220 ) ;
#134 = ORIENTED_EDGE ( 'NONE', *, *, #81, .F. ) ;
#135 = FACE_BOUND ( 'NONE', #224, .T. ) ;
#136 = DIRECTION ( 'NONE',  ( -0.000000000000000000, -0.000000000000000000, -1.000000000000000000 ) ) ;
#137 = APPROVAL_PERSON_ORGANIZATION ( #163, #84, #142 ) ;
#138 = CARTESIAN_POINT ( 'NONE',  ( 0.000000000000000000, 0.000000000000000000, 3.000000000000000000 ) ) ;
#139 = EDGE_CURVE ( 'NONE', #189, #205, #41, .T. ) ;
#140 = CYLINDRICAL_SURFACE ( 'NONE', #204, 1.600000000000000089 ) ;
#141 =( LENGTH_UNIT ( ) NAMED_UNIT ( * ) SI_UNIT ( .MILLI., .METRE. ) );
#142 = APPROVAL_ROLE ( '' ) ;
#143 = CC_DESIGN_DATE_AND_TIME_ASSIGNMENT ( #55, #50, ( #102 ) ) ;
#144 = APPROVAL_ROLE ( '' ) ;
#145 = CARTESIAN_POINT ( 'NONE',  ( -3.000000000000000444, 0.000000000000000000, 3.000000000000000000 ) ) ;
#146 = APPROVAL_STATUS ( 'not_yet_approved' ) ;
#147 = ORIENTED_EDGE ( 'NONE', *, *, #199, .F. ) ;
#148 = SECURITY_CLASSIFICATION_LEVEL ( 'unclassified' ) ;
#149 = ORIENTED_EDGE ( 'NONE', *, *, #199, .T. ) ;
#150 = EDGE_CURVE ( 'NONE', #175, #49, #14, .T. ) ;
#151 = VECTOR ( 'NONE', #127, 1000.000000000000000 ) ;
#152 = COORDINATED_UNIVERSAL_TIME_OFFSET ( 1, 0, .AHEAD. ) ;
#153 = PLANE ( 'NONE',  #124 ) ;
#154 = DIRECTION ( 'NONE',  ( 1.000000000000000000, 0.000000000000000000, 0.000000000000000000 ) ) ;
#155 = CARTESIAN_POINT ( 'NONE',  ( 0.000000000000000000, 0.000000000000000000, 630.0000000000000000 ) ) ;
#156 = CIRCLE ( 'NONE', #238, 1.600000000000000089 ) ;
#157 = CARTESIAN_POINT ( 'NONE',  ( 0.000000000000000000, 0.000000000000000000, 3.000000000000000000 ) ) ;
#158 = MANIFOLD_SOLID_BREP ( 'Pøidat vysunutím3', #119 ) ;
#159 = CARTESIAN_POINT ( 'NONE',  ( 0.000000000000000000, 0.000000000000000000, 630.0000000000000000 ) ) ;
#160 = DIRECTION ( 'NONE',  ( 0.000000000000000000, 0.000000000000000000, 1.000000000000000000 ) ) ;
#161 = AXIS2_PLACEMENT_3D ( 'NONE', #21, #136, #217 ) ;
#162 = DIRECTION ( 'NONE',  ( 0.000000000000000000, 0.000000000000000000, 1.000000000000000000 ) ) ;
#163 = PERSON_AND_ORGANIZATION ( #44, #126 ) ;
#164 =( NAMED_UNIT ( * ) PLANE_ANGLE_UNIT ( ) SI_UNIT ( $, .RADIAN. ) );
#165 = ORIENTED_EDGE ( 'NONE', *, *, #244, .F. ) ;
#166 = ADVANCED_FACE ( 'NONE', ( #97 ), #116, .T. ) ;
#167 = APPROVAL_DATE_TIME ( #53, #59 ) ;
#168 = EDGE_LOOP ( 'NONE', ( #94, #172, #70, #191 ) ) ;
#169 = CC_DESIGN_APPROVAL ( #20, ( #125 ) ) ;
#170 = ORIENTED_EDGE ( 'NONE', *, *, #81, .T. ) ;
#171 = CC_DESIGN_DATE_AND_TIME_ASSIGNMENT ( #231, #32, ( #239 ) ) ;
#172 = ORIENTED_EDGE ( 'NONE', *, *, #12, .F. ) ;
#173 = CALENDAR_DATE ( 2023, 12, 2 ) ;
#174 = EDGE_CURVE ( 'NONE', #133, #175, #196, .T. ) ;
#175 = VERTEX_POINT ( 'NONE', #201 ) ;
#176 = AXIS2_PLACEMENT_3D ( 'NONE', #223, #162, #202 ) ;
#177 = DIRECTION ( 'NONE',  ( 1.000000000000000000, 0.000000000000000000, 0.000000000000000000 ) ) ;
#178 = DIRECTION ( 'NONE',  ( -0.000000000000000000, -0.000000000000000000, -1.000000000000000000 ) ) ;
#179 = DIRECTION ( 'NONE',  ( -0.000000000000000000, -0.000000000000000000, -1.000000000000000000 ) ) ;
#180 = CARTESIAN_POINT ( 'NONE',  ( 0.000000000000000000, 0.000000000000000000, 0.000000000000000000 ) ) ;
#181 = DIRECTION ( 'NONE',  ( 0.000000000000000000, 0.000000000000000000, 1.000000000000000000 ) ) ;
#182 = PRODUCT_DEFINITION_SHAPE ( 'NONE', 'NONE',  #102 ) ;
#183 = LOCAL_TIME ( 13, 43, 24.00000000000000000, #47 ) ;
#184 = APPROVAL_DATE_TIME ( #104, #84 ) ;
#185 = AXIS2_PLACEMENT_3D ( 'NONE', #33, #54, #112 ) ;
#186 = APPROVAL_DATE_TIME ( #92, #20 ) ;
#187 = FACE_OUTER_BOUND ( 'NONE', #213, .T. ) ;
#188 = PERSON_AND_ORGANIZATION ( #44, #126 ) ;
#189 = VERTEX_POINT ( 'NONE', #255 ) ;
#190 = SHAPE_DEFINITION_REPRESENTATION ( #182, #77 ) ;
#191 = ORIENTED_EDGE ( 'NONE', *, *, #150, .T. ) ;
#192 = PLANE ( 'NONE',  #246 ) ;
#193 = UNCERTAINTY_MEASURE_WITH_UNIT (LENGTH_MEASURE( 1.000000000000000082E-05 ), #141, 'distance_accuracy_value', 'NONE');
#194 = CARTESIAN_POINT ( 'NONE',  ( 1.600000000000000089, 1.959434878635765230E-16, 630.0000000000000000 ) ) ;
#195 = FACE_OUTER_BOUND ( 'NONE', #91, .T. ) ;
#196 = LINE ( 'NONE', #42, #26 ) ;
#197 = DIRECTION ( 'NONE',  ( 0.000000000000000000, 0.000000000000000000, 1.000000000000000000 ) ) ;
#198 = CIRCLE ( 'NONE', #88, 3.000000000000000444 ) ;
#199 = EDGE_CURVE ( 'NONE', #229, #189, #103, .T. ) ;
#200 = DIRECTION ( 'NONE',  ( 0.000000000000000000, 0.000000000000000000, 1.000000000000000000 ) ) ;
#201 = CARTESIAN_POINT ( 'NONE',  ( -1.600000000000000089, 0.000000000000000000, 3.000000000000000000 ) ) ;
#202 = DIRECTION ( 'NONE',  ( 1.000000000000000000, 0.000000000000000000, 0.000000000000000000 ) ) ;
#203 = CALENDAR_DATE ( 2023, 12, 2 ) ;
#204 = AXIS2_PLACEMENT_3D ( 'NONE', #159, #237, #2 ) ;
#205 = VERTEX_POINT ( 'NONE', #78 ) ;
#206 = APPROVAL_ROLE ( '' ) ;
#207 = CC_DESIGN_PERSON_AND_ORGANIZATION_ASSIGNMENT ( #251, #6, ( #125 ) ) ;
#208 = COORDINATED_UNIVERSAL_TIME_OFFSET ( 1, 0, .AHEAD. ) ;
#209 = EDGE_LOOP ( 'NONE', ( #68, #48 ) ) ;
#210 = CC_DESIGN_PERSON_AND_ORGANIZATION_ASSIGNMENT ( #222, #85, ( #3 ) ) ;
#211 = APPLICATION_CONTEXT ( 'configuration controlled 3d designs of mechanical parts and assemblies' ) ;
#212 = ORIENTED_EDGE ( 'NONE', *, *, #12, .T. ) ;
#213 = EDGE_LOOP ( 'NONE', ( #212, #107 ) ) ;
#214 = EDGE_CURVE ( 'NONE', #229, #225, #66, .T. ) ;
#215 = DIRECTION ( 'NONE',  ( 0.000000000000000000, 0.000000000000000000, 1.000000000000000000 ) ) ;
#216 = AXIS2_PLACEMENT_3D ( 'NONE', #118, #181, #1 ) ;
#217 = DIRECTION ( 'NONE',  ( -1.000000000000000000, 0.000000000000000000, 0.000000000000000000 ) ) ;
#218 = DIRECTION ( 'NONE',  ( 1.000000000000000000, 0.000000000000000000, 0.000000000000000000 ) ) ;
#219 = ADVANCED_FACE ( 'NONE', ( #82 ), #140, .T. ) ;
#220 = CARTESIAN_POINT ( 'NONE',  ( -1.600000000000000089, 0.000000000000000000, 630.0000000000000000 ) ) ;
#221 = AXIS2_PLACEMENT_3D ( 'NONE', #17, #254, #98 ) ;
#222 = PERSON_AND_ORGANIZATION ( #44, #126 ) ;
#223 = CARTESIAN_POINT ( 'NONE',  ( 0.000000000000000000, 0.000000000000000000, 0.000000000000000000 ) ) ;
#224 = EDGE_LOOP ( 'NONE', ( #30, #134 ) ) ;
#225 = VERTEX_POINT ( 'NONE', #40 ) ;
#226 = ORIENTED_EDGE ( 'NONE', *, *, #114, .F. ) ;
#227 = PERSON_AND_ORGANIZATION ( #44, #126 ) ;
#228 = CIRCLE ( 'NONE', #19, 1.600000000000000089 ) ;
#229 = VERTEX_POINT ( 'NONE', #234 ) ;
#230 = CIRCLE ( 'NONE', #5, 3.000000000000000444 ) ;
#231 = DATE_AND_TIME ( #130, #105 ) ;
#232 = CARTESIAN_POINT ( 'NONE',  ( 0.000000000000000000, 0.000000000000000000, 630.0000000000000000 ) ) ;
#233 = DIRECTION ( 'NONE',  ( 1.000000000000000000, 0.000000000000000000, 0.000000000000000000 ) ) ;
#234 = CARTESIAN_POINT ( 'NONE',  ( 3.000000000000000444, 3.673940397442060361E-16, 3.000000000000000000 ) ) ;
#235 = CC_DESIGN_PERSON_AND_ORGANIZATION_ASSIGNMENT ( #188, #67, ( #239 ) ) ;
#236 = CYLINDRICAL_SURFACE ( 'NONE', #161, 3.000000000000000444 ) ;
#237 = DIRECTION ( 'NONE',  ( -0.000000000000000000, -0.000000000000000000, -1.000000000000000000 ) ) ;
#238 = AXIS2_PLACEMENT_3D ( 'NONE', #61, #18, #57 ) ;
#239 = SECURITY_CLASSIFICATION ( '', '', #148 ) ;
#240 = ADVANCED_FACE ( 'NONE', ( #195 ), #253, .T. ) ;
#241 = DESIGN_CONTEXT ( 'detailed design', #79, 'design' ) ;
#242 = CIRCLE ( 'NONE', #185, 1.600000000000000089 ) ;
#243 = APPROVAL_STATUS ( 'not_yet_approved' ) ;
#244 = EDGE_CURVE ( 'NONE', #11, #133, #228, .T. ) ;
#245 = LINE ( 'NONE', #145, #151 ) ;
#246 = AXIS2_PLACEMENT_3D ( 'NONE', #95, #252, #74 ) ;
#247 = COORDINATED_UNIVERSAL_TIME_OFFSET ( 1, 0, .AHEAD. ) ;
#248 = ORIENTED_EDGE ( 'NONE', *, *, #58, .F. ) ;
#249 = ORIENTED_EDGE ( 'NONE', *, *, #58, .T. ) ;
#250 = ORIENTED_EDGE ( 'NONE', *, *, #45, .T. ) ;
#251 = PERSON_AND_ORGANIZATION ( #44, #126 ) ;
#252 = DIRECTION ( 'NONE',  ( 0.000000000000000000, 0.000000000000000000, 1.000000000000000000 ) ) ;
#253 = CYLINDRICAL_SURFACE ( 'NONE', #100, 1.600000000000000089 ) ;
#254 = DIRECTION ( 'NONE',  ( -0.000000000000000000, -0.000000000000000000, -1.000000000000000000 ) ) ;
#255 = CARTESIAN_POINT ( 'NONE',  ( 3.000000000000000444, 3.673940397442060361E-16, 0.000000000000000000 ) ) ;
ENDSEC;
END-ISO-10303-21;
