ISO-10303-21;
HEADER;
FILE_DESCRIPTION (( 'STEP AP203' ),
    '1' );
FILE_NAME ('327d.STEP',
    '2022-06-20T09:53:36',
    ( '' ),
    ( '' ),
    'SwSTEP 2.0',
    'SolidWorks 2019',
    '' );
FILE_SCHEMA (( 'CONFIG_CONTROL_DESIGN' ));
ENDSEC;

DATA;
#1 = ORIENTED_EDGE ( 'NONE', *, *, #198, .T. ) ;
#2 = PRODUCT_DEFINITION_FORMATION_WITH_SPECIFIED_SOURCE ( 'LIBOVOLNÝ', '', #264, .NOT_KNOWN. ) ;
#3 = EDGE_CURVE ( 'NONE', #288, #123, #299, .T. ) ;
#4 = EDGE_LOOP ( 'NONE', ( #286, #290, #94, #7 ) ) ;
#5 = VERTEX_POINT ( 'NONE', #61 ) ;
#6 = EDGE_LOOP ( 'NONE', ( #30, #27, #148, #221 ) ) ;
#7 = ORIENTED_EDGE ( 'NONE', *, *, #226, .T. ) ;
#8 = AXIS2_PLACEMENT_3D ( 'NONE', #112, #67, #208 ) ;
#9 = FACE_OUTER_BOUND ( 'NONE', #215, .T. ) ;
#10 = DIRECTION ( 'NONE',  ( -0.000000000000000000, -0.000000000000000000, -1.000000000000000000 ) ) ;
#11 = DATE_AND_TIME ( #130, #207 ) ;
#12 = DIRECTION ( 'NONE',  ( -1.000000000000000000, 0.000000000000000000, 0.000000000000000000 ) ) ;
#13 = AXIS2_PLACEMENT_3D ( 'NONE', #60, #200, #273 ) ;
#14 = APPLICATION_PROTOCOL_DEFINITION ( 'international standard', 'config_control_design', 1994, #165 ) ;
#15 = CARTESIAN_POINT ( 'NONE',  ( 3.250000000000000444, 3.980102097228898231E-16, 1004.999999999999886 ) ) ;
#16 = DIRECTION ( 'NONE',  ( 0.000000000000000000, 0.000000000000000000, 1.000000000000000000 ) ) ;
#17 = CARTESIAN_POINT ( 'NONE',  ( -3.250000000000000444, 0.000000000000000000, 1004.999999999999886 ) ) ;
#18 = CIRCLE ( 'NONE', #191, 3.450000000000000178 ) ;
#19 = APPROVAL_STATUS ( 'not_yet_approved' ) ;
#20 = ADVANCED_FACE ( 'NONE', ( #103 ), #83, .T. ) ;
#21 = CARTESIAN_POINT ( 'NONE',  ( 0.000000000000000000, 0.000000000000000000, 5.199999999999982414 ) ) ;
#22 = CC_DESIGN_APPROVAL ( #82, ( #2 ) ) ;
#23 = FACE_OUTER_BOUND ( 'NONE', #4, .T. ) ;
#24 = DIRECTION ( 'NONE',  ( -1.000000000000000000, 0.000000000000000000, 0.000000000000000000 ) ) ;
#25 = CC_DESIGN_DATE_AND_TIME_ASSIGNMENT ( #11, #105, ( #306 ) ) ;
#26 = ORIENTED_EDGE ( 'NONE', *, *, #226, .F. ) ;
#27 = ORIENTED_EDGE ( 'NONE', *, *, #98, .T. ) ;
#28 = VECTOR ( 'NONE', #59, 1000.000000000000000 ) ;
#29 = EDGE_LOOP ( 'NONE', ( #287, #217 ) ) ;
#30 = ORIENTED_EDGE ( 'NONE', *, *, #271, .F. ) ;
#31 = CC_DESIGN_PERSON_AND_ORGANIZATION_ASSIGNMENT ( #63, #81, ( #2 ) ) ;
#32 = AXIS2_PLACEMENT_3D ( 'NONE', #227, #251, #12 ) ;
#33 = AXIS2_PLACEMENT_3D ( 'NONE', #252, #297, #44 ) ;
#34 = DIRECTION ( 'NONE',  ( 1.000000000000000000, 0.000000000000000000, 0.000000000000000000 ) ) ;
#35 = DIRECTION ( 'NONE',  ( 1.000000000000000000, 0.000000000000000000, -0.000000000000000000 ) ) ;
#36 = PERSON_AND_ORGANIZATION ( #214, #117 ) ;
#37 = CC_DESIGN_DATE_AND_TIME_ASSIGNMENT ( #65, #255, ( #177 ) ) ;
#38 = DIRECTION ( 'NONE',  ( 0.000000000000000000, -1.000000000000000000, 0.000000000000000000 ) ) ;
#39 = APPROVAL_ROLE ( '' ) ;
#40 = APPROVAL_DATE_TIME ( #58, #173 ) ;
#41 = PLANE ( 'NONE',  #139 ) ;
#42 = TOROIDAL_SURFACE ( 'NONE', #285, 3.450000000000000178, 0.2000000000000000111 ) ;
#43 = DIRECTION ( 'NONE',  ( -1.000000000000000000, 0.000000000000000000, 0.000000000000000000 ) ) ;
#44 = DIRECTION ( 'NONE',  ( 1.000000000000000000, 0.000000000000000000, 0.000000000000000000 ) ) ;
#45 = CARTESIAN_POINT ( 'NONE',  ( 0.000000000000000000, 0.000000000000000000, 5.199999999999982414 ) ) ;
#46 = MECHANICAL_CONTEXT ( 'NONE', #165, 'mechanical' ) ;
#47 = DIRECTION ( 'NONE',  ( 0.000000000000000000, 0.000000000000000000, 1.000000000000000000 ) ) ;
#48 = CC_DESIGN_APPROVAL ( #173, ( #177 ) ) ;
#49 = DIRECTION ( 'NONE',  ( -0.000000000000000000, -0.000000000000000000, -1.000000000000000000 ) ) ;
#50 = CIRCLE ( 'NONE', #262, 3.250000000000000444 ) ;
#51 = EDGE_CURVE ( 'NONE', #174, #101, #205, .T. ) ;
#52 = ORIENTED_EDGE ( 'NONE', *, *, #125, .F. ) ;
#53 = VERTEX_POINT ( 'NONE', #300 ) ;
#54 = PERSON_AND_ORGANIZATION ( #214, #117 ) ;
#55 = ORIENTED_EDGE ( 'NONE', *, *, #70, .F. ) ;
#56 = EDGE_LOOP ( 'NONE', ( #193, #263, #145, #96 ) ) ;
#57 = DIRECTION ( 'NONE',  ( -0.000000000000000000, -0.000000000000000000, -1.000000000000000000 ) ) ;
#58 = DATE_AND_TIME ( #245, #126 ) ;
#59 = DIRECTION ( 'NONE',  ( -0.000000000000000000, -0.000000000000000000, -1.000000000000000000 ) ) ;
#60 = CARTESIAN_POINT ( 'NONE',  ( 0.000000000000000000, 0.000000000000000000, 1004.999999999999886 ) ) ;
#61 = CARTESIAN_POINT ( 'NONE',  ( -3.450000000000000178, 4.225031457058368824E-16, 4.999999999999991118 ) ) ;
#62 = LINE ( 'NONE', #15, #220 ) ;
#63 = PERSON_AND_ORGANIZATION ( #214, #117 ) ;
#64 = CARTESIAN_POINT ( 'NONE',  ( 0.000000000000000000, 0.000000000000000000, 1004.999999999999886 ) ) ;
#65 = DATE_AND_TIME ( #206, #259 ) ;
#66 = CARTESIAN_POINT ( 'NONE',  ( 0.000000000000000000, 0.000000000000000000, 5.000000000000000000 ) ) ;
#67 = DIRECTION ( 'NONE',  ( -0.000000000000000000, -0.000000000000000000, -1.000000000000000000 ) ) ;
#68 = AXIS2_PLACEMENT_3D ( 'NONE', #196, #176, #204 ) ;
#69 = AXIS2_PLACEMENT_3D ( 'NONE', #248, #182, #185 ) ;
#70 = EDGE_CURVE ( 'NONE', #174, #170, #266, .T. ) ;
#71 = EDGE_LOOP ( 'NONE', ( #192, #97 ) ) ;
#72 = ORIENTED_EDGE ( 'NONE', *, *, #169, .F. ) ;
#73 = EDGE_CURVE ( 'NONE', #123, #288, #111, .T. ) ;
#74 = EDGE_LOOP ( 'NONE', ( #52, #168, #171, #72 ) ) ;
#75 = CIRCLE ( 'NONE', #13, 3.250000000000000444 ) ;
#76 = ORIENTED_EDGE ( 'NONE', *, *, #125, .T. ) ;
#77 = DIRECTION ( 'NONE',  ( -0.000000000000000000, -0.000000000000000000, -1.000000000000000000 ) ) ;
#78 = CC_DESIGN_PERSON_AND_ORGANIZATION_ASSIGNMENT ( #36, #108, ( #306 ) ) ;
#79 = LINE ( 'NONE', #269, #28 ) ;
#80 = DIRECTION ( 'NONE',  ( 0.000000000000000000, 0.000000000000000000, 1.000000000000000000 ) ) ;
#81 = PERSON_AND_ORGANIZATION_ROLE ( 'design_supplier' ) ;
#82 = APPROVAL ( #154, 'NEURÈENÝ' ) ;
#83 = CYLINDRICAL_SURFACE ( 'NONE', #32, 6.000000000000000888 ) ;
#84 = CIRCLE ( 'NONE', #150, 6.000000000000000888 ) ;
#85 = UNCERTAINTY_MEASURE_WITH_UNIT (LENGTH_MEASURE( 1.000000000000000082E-05 ), #113, 'distance_accuracy_value', 'NONE');
#86 = AXIS2_PLACEMENT_3D ( 'NONE', #153, #106, #129 ) ;
#87 = CALENDAR_DATE ( 2022, 20, 6 ) ;
#88 = SHAPE_DEFINITION_REPRESENTATION ( #222, #166 ) ;
#89 = CARTESIAN_POINT ( 'NONE',  ( 3.450000000000000178, 0.000000000000000000, 4.999999999999991118 ) ) ;
#90 = APPROVAL_PERSON_ORGANIZATION ( #54, #173, #301 ) ;
#91 = CARTESIAN_POINT ( 'NONE',  ( 0.000000000000000000, 0.000000000000000000, 1004.999999999999886 ) ) ;
#92 = CARTESIAN_POINT ( 'NONE',  ( -3.250000000000000444, 0.000000000000000000, 1004.999999999999886 ) ) ;
#93 = APPROVAL ( #19, 'NEURÈENÝ' ) ;
#94 = ORIENTED_EDGE ( 'NONE', *, *, #194, .T. ) ;
#95 = AXIS2_PLACEMENT_3D ( 'NONE', #91, #279, #43 ) ;
#96 = ORIENTED_EDGE ( 'NONE', *, *, #250, .F. ) ;
#97 = ORIENTED_EDGE ( 'NONE', *, *, #271, .T. ) ;
#98 = EDGE_CURVE ( 'NONE', #149, #174, #62, .T. ) ;
#99 = ORIENTED_EDGE ( 'NONE', *, *, #184, .T. ) ;
#100 = APPROVAL_PERSON_ORGANIZATION ( #278, #93, #209 ) ;
#101 = VERTEX_POINT ( 'NONE', #136 ) ;
#102 = FACE_OUTER_BOUND ( 'NONE', #261, .T. ) ;
#103 = FACE_OUTER_BOUND ( 'NONE', #74, .T. ) ;
#104 = COORDINATED_UNIVERSAL_TIME_OFFSET ( 1, 0, .AHEAD. ) ;
#105 = DATE_TIME_ROLE ( 'creation_date' ) ;
#106 = DIRECTION ( 'NONE',  ( 0.000000000000000000, 0.000000000000000000, 1.000000000000000000 ) ) ;
#107 = ADVANCED_FACE ( 'NONE', ( #132 ), #41, .T. ) ;
#108 = PERSON_AND_ORGANIZATION_ROLE ( 'creator' ) ;
#109 = CARTESIAN_POINT ( 'NONE',  ( 3.250000000000000444, 3.980102097228898231E-16, 1004.999999999999886 ) ) ;
#110 = DIRECTION ( 'NONE',  ( 1.000000000000000000, 0.000000000000000000, -0.000000000000000000 ) ) ;
#111 = CIRCLE ( 'NONE', #144, 6.000000000000000888 ) ;
#112 = CARTESIAN_POINT ( 'NONE',  ( 0.000000000000000000, 0.000000000000000000, 5.000000000000000000 ) ) ;
#113 =( LENGTH_UNIT ( ) NAMED_UNIT ( * ) SI_UNIT ( .MILLI., .METRE. ) );
#114 = EDGE_CURVE ( 'NONE', #53, #288, #152, .T. ) ;
#115 = DIRECTION ( 'NONE',  ( 1.000000000000000000, 0.000000000000000000, 0.000000000000000000 ) ) ;
#116 = PRODUCT_RELATED_PRODUCT_CATEGORY ( 'detail', '', ( #264 ) ) ;
#117 = ORGANIZATION ( 'NEURÈENÝ', 'NEURÈENÝ', '' ) ;
#118 = VERTEX_POINT ( 'NONE', #17 ) ;
#119 = APPLICATION_CONTEXT ( 'configuration controlled 3d designs of mechanical parts and assemblies' ) ;
#120 = AXIS2_PLACEMENT_3D ( 'NONE', #225, #178, #110 ) ;
#121 = ORIENTED_EDGE ( 'NONE', *, *, #131, .F. ) ;
#122 = ORIENTED_EDGE ( 'NONE', *, *, #114, .F. ) ;
#123 = VERTEX_POINT ( 'NONE', #272 ) ;
#124 = EDGE_LOOP ( 'NONE', ( #99, #76 ) ) ;
#125 = EDGE_CURVE ( 'NONE', #53, #265, #84, .T. ) ;
#126 = LOCAL_TIME ( 11, 53, 36.00000000000000000, #104 ) ;
#127 = CARTESIAN_POINT ( 'NONE',  ( 0.000000000000000000, 0.000000000000000000, 5.199999999999982414 ) ) ;
#128 = APPROVAL_STATUS ( 'not_yet_approved' ) ;
#129 = DIRECTION ( 'NONE',  ( 1.000000000000000000, 0.000000000000000000, 0.000000000000000000 ) ) ;
#130 = CALENDAR_DATE ( 2022, 20, 6 ) ;
#131 = EDGE_CURVE ( 'NONE', #170, #5, #18, .T. ) ;
#132 = FACE_OUTER_BOUND ( 'NONE', #71, .T. ) ;
#133 = CARTESIAN_POINT ( 'NONE',  ( -6.000000000000000888, 0.000000000000000000, 5.000000000000000000 ) ) ;
#134 = CARTESIAN_POINT ( 'NONE',  ( 0.000000000000000000, 0.000000000000000000, 0.000000000000000000 ) ) ;
#135 = CARTESIAN_POINT ( 'NONE',  ( 6.000000000000000888, 7.347880794884120722E-16, 0.000000000000000000 ) ) ;
#136 = CARTESIAN_POINT ( 'NONE',  ( -3.250000000000000444, 0.000000000000000000, 5.199999999999982414 ) ) ;
#137 = PERSON_AND_ORGANIZATION_ROLE ( 'classification_officer' ) ;
#138 = DIRECTION ( 'NONE',  ( 0.000000000000000000, 0.000000000000000000, 1.000000000000000000 ) ) ;
#139 = AXIS2_PLACEMENT_3D ( 'NONE', #64, #229, #35 ) ;
#140 = DIRECTION ( 'NONE',  ( 1.000000000000000000, 0.000000000000000000, 0.000000000000000000 ) ) ;
#141 = AXIS2_PLACEMENT_3D ( 'NONE', #66, #188, #281 ) ;
#142 = CARTESIAN_POINT ( 'NONE',  ( -3.450000000000000178, 4.225031457058368824E-16, 5.199999999999982414 ) ) ;
#143 = CC_DESIGN_PERSON_AND_ORGANIZATION_ASSIGNMENT ( #181, #137, ( #177 ) ) ;
#144 = AXIS2_PLACEMENT_3D ( 'NONE', #134, #80, #230 ) ;
#145 = ORIENTED_EDGE ( 'NONE', *, *, #70, .T. ) ;
#146 = ADVANCED_FACE ( 'NONE', ( #9 ), #175, .F. ) ;
#147 = CLOSED_SHELL ( 'NONE', ( #146, #257, #20, #189, #239, #155, #231, #107, #218 ) ) ;
#148 = ORIENTED_EDGE ( 'NONE', *, *, #51, .T. ) ;
#149 = VERTEX_POINT ( 'NONE', #109 ) ;
#150 = AXIS2_PLACEMENT_3D ( 'NONE', #201, #294, #156 ) ;
#151 = AXIS2_PLACEMENT_3D ( 'NONE', #236, #187, #115 ) ;
#152 = LINE ( 'NONE', #246, #284 ) ;
#153 = CARTESIAN_POINT ( 'NONE',  ( 0.000000000000000000, 0.000000000000000000, 0.000000000000000000 ) ) ;
#154 = APPROVAL_STATUS ( 'not_yet_approved' ) ;
#155 = ADVANCED_FACE ( 'NONE', ( #267 ), #180, .F. ) ;
#156 = DIRECTION ( 'NONE',  ( 1.000000000000000000, 0.000000000000000000, 0.000000000000000000 ) ) ;
#157 = COORDINATED_UNIVERSAL_TIME_OFFSET ( 1, 0, .AHEAD. ) ;
#158 = DIRECTION ( 'NONE',  ( 1.000000000000000000, 0.000000000000000000, 0.000000000000000000 ) ) ;
#159 = SECURITY_CLASSIFICATION_LEVEL ( 'unclassified' ) ;
#160 = FACE_BOUND ( 'NONE', #195, .T. ) ;
#161 = CC_DESIGN_PERSON_AND_ORGANIZATION_ASSIGNMENT ( #296, #162, ( #2 ) ) ;
#162 = PERSON_AND_ORGANIZATION_ROLE ( 'creator' ) ;
#163 = DIRECTION ( 'NONE',  ( 1.224646799147353207E-16, 1.000000000000000000, -0.000000000000000000 ) ) ;
#164 = DIRECTION ( 'NONE',  ( -0.000000000000000000, -0.000000000000000000, -1.000000000000000000 ) ) ;
#165 = APPLICATION_CONTEXT ( 'configuration controlled 3d designs of mechanical parts and assemblies' ) ;
#166 = ADVANCED_BREP_SHAPE_REPRESENTATION ( '327d', ( #223, #172 ), #186 ) ;
#167 = AXIS2_PLACEMENT_3D ( 'NONE', #142, #163, #210 ) ;
#168 = ORIENTED_EDGE ( 'NONE', *, *, #114, .T. ) ;
#169 = EDGE_CURVE ( 'NONE', #265, #123, #79, .T. ) ;
#170 = VERTEX_POINT ( 'NONE', #89 ) ;
#171 = ORIENTED_EDGE ( 'NONE', *, *, #3, .T. ) ;
#172 = AXIS2_PLACEMENT_3D ( 'NONE', #247, #16, #249 ) ;
#173 = APPROVAL ( #128, 'NEURÈENÝ' ) ;
#174 = VERTEX_POINT ( 'NONE', #202 ) ;
#175 = TOROIDAL_SURFACE ( 'NONE', #216, 3.450000000000000178, 0.2000000000000000111 ) ;
#176 = DIRECTION ( 'NONE',  ( -0.000000000000000000, -0.000000000000000000, -1.000000000000000000 ) ) ;
#177 = SECURITY_CLASSIFICATION ( '', '', #159 ) ;
#178 = DIRECTION ( 'NONE',  ( 0.000000000000000000, 0.000000000000000000, 1.000000000000000000 ) ) ;
#179 = APPROVAL_DATE_TIME ( #280, #93 ) ;
#180 = PLANE ( 'NONE',  #120 ) ;
#181 = PERSON_AND_ORGANIZATION ( #214, #117 ) ;
#182 = DIRECTION ( 'NONE',  ( 0.000000000000000000, 0.000000000000000000, 1.000000000000000000 ) ) ;
#183 = DATE_AND_TIME ( #87, #213 ) ;
#184 = EDGE_CURVE ( 'NONE', #265, #53, #292, .T. ) ;
#185 = DIRECTION ( 'NONE',  ( 1.000000000000000000, 0.000000000000000000, 0.000000000000000000 ) ) ;
#186 =( GEOMETRIC_REPRESENTATION_CONTEXT ( 3 ) GLOBAL_UNCERTAINTY_ASSIGNED_CONTEXT ( ( #85 ) ) GLOBAL_UNIT_ASSIGNED_CONTEXT ( ( #113, #302, #235 ) ) REPRESENTATION_CONTEXT ( 'NONE', 'WORKASPACE' ) );
#187 = DIRECTION ( 'NONE',  ( 0.000000000000000000, 0.000000000000000000, 1.000000000000000000 ) ) ;
#188 = DIRECTION ( 'NONE',  ( 0.000000000000000000, 0.000000000000000000, 1.000000000000000000 ) ) ;
#189 = ADVANCED_FACE ( 'NONE', ( #102 ), #232, .T. ) ;
#190 = CIRCLE ( 'NONE', #167, 0.2000000000000000944 ) ;
#191 = AXIS2_PLACEMENT_3D ( 'NONE', #197, #77, #158 ) ;
#192 = ORIENTED_EDGE ( 'NONE', *, *, #212, .T. ) ;
#193 = ORIENTED_EDGE ( 'NONE', *, *, #198, .F. ) ;
#194 = EDGE_CURVE ( 'NONE', #118, #101, #291, .T. ) ;
#195 = EDGE_LOOP ( 'NONE', ( #240, #241 ) ) ;
#196 = CARTESIAN_POINT ( 'NONE',  ( 0.000000000000000000, 0.000000000000000000, 5.000000000000000000 ) ) ;
#197 = CARTESIAN_POINT ( 'NONE',  ( 0.000000000000000000, 0.000000000000000000, 5.000000000000000000 ) ) ;
#198 = EDGE_CURVE ( 'NONE', #101, #5, #190, .T. ) ;
#199 = VECTOR ( 'NONE', #49, 1000.000000000000000 ) ;
#200 = DIRECTION ( 'NONE',  ( 0.000000000000000000, 0.000000000000000000, 1.000000000000000000 ) ) ;
#201 = CARTESIAN_POINT ( 'NONE',  ( 0.000000000000000000, 0.000000000000000000, 5.000000000000000000 ) ) ;
#202 = CARTESIAN_POINT ( 'NONE',  ( 3.250000000000000444, 3.980102097228898231E-16, 5.199999999999982414 ) ) ;
#203 = PERSON_AND_ORGANIZATION_ROLE ( 'design_owner' ) ;
#204 = DIRECTION ( 'NONE',  ( -1.000000000000000000, 0.000000000000000000, 0.000000000000000000 ) ) ;
#205 = CIRCLE ( 'NONE', #69, 3.250000000000000444 ) ;
#206 = CALENDAR_DATE ( 2022, 20, 6 ) ;
#207 = LOCAL_TIME ( 11, 53, 36.00000000000000000, #157 ) ;
#208 = DIRECTION ( 'NONE',  ( 1.000000000000000000, 0.000000000000000000, 0.000000000000000000 ) ) ;
#209 = APPROVAL_ROLE ( '' ) ;
#210 = DIRECTION ( 'NONE',  ( -1.000000000000000000, 1.224646799147350742E-16, 0.000000000000000000 ) ) ;
#211 = CARTESIAN_POINT ( 'NONE',  ( 0.000000000000000000, 0.000000000000000000, 1004.999999999999886 ) ) ;
#212 = EDGE_CURVE ( 'NONE', #118, #149, #238, .T. ) ;
#213 = LOCAL_TIME ( 11, 53, 36.00000000000000000, #275 ) ;
#214 = PERSON ( 'NEURÈENÝ', 'NEURÈENÝ', 'NEURÈENÝ', ('NEURÈENÝ'), ('NEURÈENÝ'), ('NEURÈENÝ') ) ;
#215 = EDGE_LOOP ( 'NONE', ( #26, #1, #121, #55 ) ) ;
#216 = AXIS2_PLACEMENT_3D ( 'NONE', #127, #243, #34 ) ;
#217 = ORIENTED_EDGE ( 'NONE', *, *, #3, .F. ) ;
#218 = ADVANCED_FACE ( 'NONE', ( #256 ), #42, .F. ) ;
#219 = ORIENTED_EDGE ( 'NONE', *, *, #73, .T. ) ;
#220 = VECTOR ( 'NONE', #57, 1000.000000000000000 ) ;
#221 = ORIENTED_EDGE ( 'NONE', *, *, #194, .F. ) ;
#222 = PRODUCT_DEFINITION_SHAPE ( 'NONE', 'NONE',  #306 ) ;
#223 = MANIFOLD_SOLID_BREP ( 'Zaoblit1', #147 ) ;
#224 = CC_DESIGN_APPROVAL ( #93, ( #306 ) ) ;
#225 = CARTESIAN_POINT ( 'NONE',  ( 0.000000000000000000, 0.000000000000000000, 0.000000000000000000 ) ) ;
#226 = EDGE_CURVE ( 'NONE', #101, #174, #50, .T. ) ;
#227 = CARTESIAN_POINT ( 'NONE',  ( 0.000000000000000000, 0.000000000000000000, 5.000000000000000000 ) ) ;
#228 = APPLICATION_PROTOCOL_DEFINITION ( 'international standard', 'config_control_design', 1994, #119 ) ;
#229 = DIRECTION ( 'NONE',  ( 0.000000000000000000, 0.000000000000000000, 1.000000000000000000 ) ) ;
#230 = DIRECTION ( 'NONE',  ( 1.000000000000000000, 0.000000000000000000, 0.000000000000000000 ) ) ;
#231 = ADVANCED_FACE ( 'NONE', ( #23 ), #305, .T. ) ;
#232 = CYLINDRICAL_SURFACE ( 'NONE', #68, 6.000000000000000888 ) ;
#233 = COORDINATED_UNIVERSAL_TIME_OFFSET ( 1, 0, .AHEAD. ) ;
#234 = PLANE ( 'NONE',  #141 ) ;
#235 =( NAMED_UNIT ( * ) SI_UNIT ( $, .STERADIAN. ) SOLID_ANGLE_UNIT ( ) );
#236 = CARTESIAN_POINT ( 'NONE',  ( 0.000000000000000000, 0.000000000000000000, 1004.999999999999886 ) ) ;
#237 = FACE_OUTER_BOUND ( 'NONE', #6, .T. ) ;
#238 = CIRCLE ( 'NONE', #151, 3.250000000000000444 ) ;
#239 = ADVANCED_FACE ( 'NONE', ( #160, #254 ), #234, .T. ) ;
#240 = ORIENTED_EDGE ( 'NONE', *, *, #131, .T. ) ;
#241 = ORIENTED_EDGE ( 'NONE', *, *, #250, .T. ) ;
#242 = AXIS2_PLACEMENT_3D ( 'NONE', #277, #38, #274 ) ;
#243 = DIRECTION ( 'NONE',  ( 0.000000000000000000, 0.000000000000000000, 1.000000000000000000 ) ) ;
#244 = CC_DESIGN_SECURITY_CLASSIFICATION ( #177, ( #2 ) ) ;
#245 = CALENDAR_DATE ( 2022, 20, 6 ) ;
#246 = CARTESIAN_POINT ( 'NONE',  ( 6.000000000000000888, 7.347880794884120722E-16, 5.000000000000000000 ) ) ;
#247 = CARTESIAN_POINT ( 'NONE',  ( 0.000000000000000000, 0.000000000000000000, 0.000000000000000000 ) ) ;
#248 = CARTESIAN_POINT ( 'NONE',  ( 0.000000000000000000, 0.000000000000000000, 5.199999999999982414 ) ) ;
#249 = DIRECTION ( 'NONE',  ( 1.000000000000000000, 0.000000000000000000, 0.000000000000000000 ) ) ;
#250 = EDGE_CURVE ( 'NONE', #5, #170, #276, .T. ) ;
#251 = DIRECTION ( 'NONE',  ( -0.000000000000000000, -0.000000000000000000, -1.000000000000000000 ) ) ;
#252 = CARTESIAN_POINT ( 'NONE',  ( 0.000000000000000000, 0.000000000000000000, 5.000000000000000000 ) ) ;
#253 = APPROVAL_DATE_TIME ( #183, #82 ) ;
#254 = FACE_OUTER_BOUND ( 'NONE', #124, .T. ) ;
#255 = DATE_TIME_ROLE ( 'classification_date' ) ;
#256 = FACE_OUTER_BOUND ( 'NONE', #56, .T. ) ;
#257 = ADVANCED_FACE ( 'NONE', ( #237 ), #303, .T. ) ;
#258 = DIRECTION ( 'NONE',  ( 1.000000000000000000, 0.000000000000000000, 0.000000000000000000 ) ) ;
#259 = LOCAL_TIME ( 11, 53, 36.00000000000000000, #233 ) ;
#260 = ORIENTED_EDGE ( 'NONE', *, *, #169, .T. ) ;
#261 = EDGE_LOOP ( 'NONE', ( #122, #289, #260, #219 ) ) ;
#262 = AXIS2_PLACEMENT_3D ( 'NONE', #45, #47, #140 ) ;
#263 = ORIENTED_EDGE ( 'NONE', *, *, #51, .F. ) ;
#264 = PRODUCT ( '327d', '327d', '', ( #46 ) ) ;
#265 = VERTEX_POINT ( 'NONE', #133 ) ;
#266 = CIRCLE ( 'NONE', #242, 0.1999999999999996503 ) ;
#267 = FACE_OUTER_BOUND ( 'NONE', #29, .T. ) ;
#268 = APPROVAL_PERSON_ORGANIZATION ( #270, #82, #39 ) ;
#269 = CARTESIAN_POINT ( 'NONE',  ( -6.000000000000000888, 0.000000000000000000, 5.000000000000000000 ) ) ;
#270 = PERSON_AND_ORGANIZATION ( #214, #117 ) ;
#271 = EDGE_CURVE ( 'NONE', #149, #118, #75, .T. ) ;
#272 = CARTESIAN_POINT ( 'NONE',  ( -6.000000000000000888, 0.000000000000000000, 0.000000000000000000 ) ) ;
#273 = DIRECTION ( 'NONE',  ( 1.000000000000000000, 0.000000000000000000, 0.000000000000000000 ) ) ;
#274 = DIRECTION ( 'NONE',  ( 0.000000000000000000, 0.000000000000000000, -1.000000000000000000 ) ) ;
#275 = COORDINATED_UNIVERSAL_TIME_OFFSET ( 1, 0, .AHEAD. ) ;
#276 = CIRCLE ( 'NONE', #8, 3.450000000000000178 ) ;
#277 = CARTESIAN_POINT ( 'NONE',  ( 3.450000000000000178, 0.000000000000000000, 5.199999999999982414 ) ) ;
#278 = PERSON_AND_ORGANIZATION ( #214, #117 ) ;
#279 = DIRECTION ( 'NONE',  ( -0.000000000000000000, -0.000000000000000000, -1.000000000000000000 ) ) ;
#280 = DATE_AND_TIME ( #304, #282 ) ;
#281 = DIRECTION ( 'NONE',  ( 1.000000000000000000, 0.000000000000000000, -0.000000000000000000 ) ) ;
#282 = LOCAL_TIME ( 11, 53, 36.00000000000000000, #298 ) ;
#283 = CC_DESIGN_PERSON_AND_ORGANIZATION_ASSIGNMENT ( #293, #203, ( #264 ) ) ;
#284 = VECTOR ( 'NONE', #10, 1000.000000000000000 ) ;
#285 = AXIS2_PLACEMENT_3D ( 'NONE', #21, #138, #258 ) ;
#286 = ORIENTED_EDGE ( 'NONE', *, *, #98, .F. ) ;
#287 = ORIENTED_EDGE ( 'NONE', *, *, #73, .F. ) ;
#288 = VERTEX_POINT ( 'NONE', #135 ) ;
#289 = ORIENTED_EDGE ( 'NONE', *, *, #184, .F. ) ;
#290 = ORIENTED_EDGE ( 'NONE', *, *, #212, .F. ) ;
#291 = LINE ( 'NONE', #92, #199 ) ;
#292 = CIRCLE ( 'NONE', #33, 6.000000000000000888 ) ;
#293 = PERSON_AND_ORGANIZATION ( #214, #117 ) ;
#294 = DIRECTION ( 'NONE',  ( 0.000000000000000000, 0.000000000000000000, 1.000000000000000000 ) ) ;
#295 = DESIGN_CONTEXT ( 'detailed design', #119, 'design' ) ;
#296 = PERSON_AND_ORGANIZATION ( #214, #117 ) ;
#297 = DIRECTION ( 'NONE',  ( 0.000000000000000000, 0.000000000000000000, 1.000000000000000000 ) ) ;
#298 = COORDINATED_UNIVERSAL_TIME_OFFSET ( 1, 0, .AHEAD. ) ;
#299 = CIRCLE ( 'NONE', #86, 6.000000000000000888 ) ;
#300 = CARTESIAN_POINT ( 'NONE',  ( 6.000000000000000888, 7.347880794884120722E-16, 5.000000000000000000 ) ) ;
#301 = APPROVAL_ROLE ( '' ) ;
#302 =( NAMED_UNIT ( * ) PLANE_ANGLE_UNIT ( ) SI_UNIT ( $, .RADIAN. ) );
#303 = CYLINDRICAL_SURFACE ( 'NONE', #95, 3.250000000000000444 ) ;
#304 = CALENDAR_DATE ( 2022, 20, 6 ) ;
#305 = CYLINDRICAL_SURFACE ( 'NONE', #307, 3.250000000000000444 ) ;
#306 = PRODUCT_DEFINITION ( 'NEZNÁMÝ', '', #2, #295 ) ;
#307 = AXIS2_PLACEMENT_3D ( 'NONE', #211, #164, #24 ) ;
ENDSEC;
END-ISO-10303-21;
