ISO-10303-21;
HEADER;
FILE_DESCRIPTION (( 'STEP AP203' ),
    '1' );
FILE_NAME ('ff86.STEP',
    '2022-06-20T09:45:21',
    ( '' ),
    ( '' ),
    'SwSTEP 2.0',
    'SolidWorks 2019',
    '' );
FILE_SCHEMA (( 'CONFIG_CONTROL_DESIGN' ));
ENDSEC;

DATA;
#1 = VERTEX_POINT ( 'NONE', #4 ) ;
#2 = DATE_TIME_ROLE ( 'creation_date' ) ;
#3 = EDGE_LOOP ( 'NONE', ( #90, #84 ) ) ;
#4 = CARTESIAN_POINT ( 'NONE',  ( 4.450000000000000178, 0.000000000000000000, 4.999999999999998224 ) ) ;
#5 = EDGE_CURVE ( 'NONE', #6, #67, #43, .T. ) ;
#6 = VERTEX_POINT ( 'NONE', #189 ) ;
#7 = CARTESIAN_POINT ( 'NONE',  ( 7.000000000000000000, 8.572527594031473190E-16, 0.000000000000000000 ) ) ;
#8 = FACE_OUTER_BOUND ( 'NONE', #143, .T. ) ;
#9 = CC_DESIGN_PERSON_AND_ORGANIZATION_ASSIGNMENT ( #29, #269, ( #88 ) ) ;
#10 = DIRECTION ( 'NONE',  ( 1.000000000000000000, 0.000000000000000000, 0.000000000000000000 ) ) ;
#11 = CARTESIAN_POINT ( 'NONE',  ( 0.000000000000000000, 0.000000000000000000, 0.000000000000000000 ) ) ;
#12 = EDGE_CURVE ( 'NONE', #238, #252, #126, .T. ) ;
#13 = DIRECTION ( 'NONE',  ( 0.000000000000000000, 0.000000000000000000, 1.000000000000000000 ) ) ;
#14 = EDGE_CURVE ( 'NONE', #25, #1, #204, .T. ) ;
#15 = PRODUCT_DEFINITION_SHAPE ( 'NONE', 'NONE',  #57 ) ;
#16 = APPLICATION_PROTOCOL_DEFINITION ( 'international standard', 'config_control_design', 1994, #274 ) ;
#17 = MANIFOLD_SOLID_BREP ( 'Zaoblit1', #54 ) ;
#18 = CARTESIAN_POINT ( 'NONE',  ( -7.000000000000000000, 0.000000000000000000, 5.000000000000000000 ) ) ;
#19 = EDGE_LOOP ( 'NONE', ( #141, #165 ) ) ;
#20 = CARTESIAN_POINT ( 'NONE',  ( 7.000000000000000000, 8.572527594031473190E-16, 5.000000000000000000 ) ) ;
#21 = ORIENTED_EDGE ( 'NONE', *, *, #270, .T. ) ;
#22 = AXIS2_PLACEMENT_3D ( 'NONE', #136, #228, #85 ) ;
#23 = DIRECTION ( 'NONE',  ( -0.000000000000000000, -0.000000000000000000, -1.000000000000000000 ) ) ;
#24 = CALENDAR_DATE ( 2022, 20, 6 ) ;
#25 = VERTEX_POINT ( 'NONE', #169 ) ;
#26 = APPROVAL_DATE_TIME ( #70, #275 ) ;
#27 = APPROVAL ( #239, 'NEURÈENÝ' ) ;
#28 = VERTEX_POINT ( 'NONE', #47 ) ;
#29 = PERSON_AND_ORGANIZATION ( #246, #142 ) ;
#30 = CYLINDRICAL_SURFACE ( 'NONE', #59, 4.250000000000000000 ) ;
#31 = ADVANCED_FACE ( 'NONE', ( #137 ), #75, .F. ) ;
#32 = DATE_TIME_ROLE ( 'classification_date' ) ;
#33 = CARTESIAN_POINT ( 'NONE',  ( -4.450000000000000178, 5.449678256205721784E-16, 5.199999999999996625 ) ) ;
#34 = TOROIDAL_SURFACE ( 'NONE', #201, 4.450000000000000178, 0.2000000000000000111 ) ;
#35 =( GEOMETRIC_REPRESENTATION_CONTEXT ( 3 ) GLOBAL_UNCERTAINTY_ASSIGNED_CONTEXT ( ( #298 ) ) GLOBAL_UNIT_ASSIGNED_CONTEXT ( ( #159, #226, #282 ) ) REPRESENTATION_CONTEXT ( 'NONE', 'WORKASPACE' ) );
#36 = CARTESIAN_POINT ( 'NONE',  ( 4.450000000000000178, 0.000000000000000000, 5.199999999999996625 ) ) ;
#37 = FACE_OUTER_BOUND ( 'NONE', #156, .T. ) ;
#38 = EDGE_CURVE ( 'NONE', #67, #28, #250, .T. ) ;
#39 = DIRECTION ( 'NONE',  ( 1.224646799147353207E-16, 1.000000000000000000, -0.000000000000000000 ) ) ;
#40 = DIRECTION ( 'NONE',  ( 1.000000000000000000, 0.000000000000000000, 0.000000000000000000 ) ) ;
#41 = PERSON_AND_ORGANIZATION ( #246, #142 ) ;
#42 = ORIENTED_EDGE ( 'NONE', *, *, #5, .T. ) ;
#43 = LINE ( 'NONE', #187, #129 ) ;
#44 = ADVANCED_FACE ( 'NONE', ( #219 ), #170, .F. ) ;
#45 = PERSON_AND_ORGANIZATION ( #246, #142 ) ;
#46 = EDGE_LOOP ( 'NONE', ( #182, #92, #63, #183 ) ) ;
#47 = CARTESIAN_POINT ( 'NONE',  ( -4.250000000000000000, 0.000000000000000000, 5.199999999999996625 ) ) ;
#48 = PERSON_AND_ORGANIZATION ( #246, #142 ) ;
#49 = EDGE_CURVE ( 'NONE', #252, #238, #277, .T. ) ;
#50 = DIRECTION ( 'NONE',  ( -0.000000000000000000, -0.000000000000000000, -1.000000000000000000 ) ) ;
#51 = LOCAL_TIME ( 11, 45, 21.00000000000000000, #185 ) ;
#52 = DIRECTION ( 'NONE',  ( -0.000000000000000000, -0.000000000000000000, -1.000000000000000000 ) ) ;
#53 = COORDINATED_UNIVERSAL_TIME_OFFSET ( 1, 0, .AHEAD. ) ;
#54 = CLOSED_SHELL ( 'NONE', ( #68, #105, #157, #106, #194, #44, #198, #299, #31 ) ) ;
#55 = LINE ( 'NONE', #152, #266 ) ;
#56 = DESIGN_CONTEXT ( 'detailed design', #227, 'design' ) ;
#57 = PRODUCT_DEFINITION ( 'NEZNÁMÝ', '', #88, #56 ) ;
#58 = CYLINDRICAL_SURFACE ( 'NONE', #217, 4.250000000000000000 ) ;
#59 = AXIS2_PLACEMENT_3D ( 'NONE', #251, #50, #191 ) ;
#60 = DIRECTION ( 'NONE',  ( 0.000000000000000000, 0.000000000000000000, 1.000000000000000000 ) ) ;
#61 = DIRECTION ( 'NONE',  ( 1.000000000000000000, 0.000000000000000000, 0.000000000000000000 ) ) ;
#62 = APPLICATION_PROTOCOL_DEFINITION ( 'international standard', 'config_control_design', 1994, #227 ) ;
#63 = ORIENTED_EDGE ( 'NONE', *, *, #184, .T. ) ;
#64 = CARTESIAN_POINT ( 'NONE',  ( -4.250000000000000000, 0.000000000000000000, 130.0000000000000000 ) ) ;
#65 = ORIENTED_EDGE ( 'NONE', *, *, #5, .F. ) ;
#66 = EDGE_CURVE ( 'NONE', #6, #236, #167, .T. ) ;
#67 = VERTEX_POINT ( 'NONE', #74 ) ;
#68 = ADVANCED_FACE ( 'NONE', ( #73 ), #34, .F. ) ;
#69 = CARTESIAN_POINT ( 'NONE',  ( 0.000000000000000000, 0.000000000000000000, 5.000000000000000000 ) ) ;
#70 = DATE_AND_TIME ( #237, #51 ) ;
#71 = EDGE_LOOP ( 'NONE', ( #65, #262, #120, #213 ) ) ;
#72 = PERSON_AND_ORGANIZATION ( #246, #142 ) ;
#73 = FACE_OUTER_BOUND ( 'NONE', #256, .T. ) ;
#74 = CARTESIAN_POINT ( 'NONE',  ( 4.250000000000000000, 5.204748896376250699E-16, 5.199999999999996625 ) ) ;
#75 = TOROIDAL_SURFACE ( 'NONE', #292, 4.450000000000000178, 0.2000000000000000111 ) ;
#76 = APPROVAL_ROLE ( '' ) ;
#77 = LOCAL_TIME ( 11, 45, 21.00000000000000000, #93 ) ;
#78 = EDGE_CURVE ( 'NONE', #238, #163, #199, .T. ) ;
#79 = CC_DESIGN_PERSON_AND_ORGANIZATION_ASSIGNMENT ( #72, #263, ( #225 ) ) ;
#80 = DIRECTION ( 'NONE',  ( 1.000000000000000000, 0.000000000000000000, 0.000000000000000000 ) ) ;
#81 = DIRECTION ( 'NONE',  ( 0.000000000000000000, 0.000000000000000000, 1.000000000000000000 ) ) ;
#82 = DIRECTION ( 'NONE',  ( 1.000000000000000000, 0.000000000000000000, -0.000000000000000000 ) ) ;
#83 = DIRECTION ( 'NONE',  ( 0.000000000000000000, 0.000000000000000000, 1.000000000000000000 ) ) ;
#84 = ORIENTED_EDGE ( 'NONE', *, *, #66, .T. ) ;
#85 = DIRECTION ( 'NONE',  ( 1.000000000000000000, 0.000000000000000000, 0.000000000000000000 ) ) ;
#86 = PRODUCT ( 'ff86', 'ff86', '', ( #202 ) ) ;
#87 = CARTESIAN_POINT ( 'NONE',  ( 0.000000000000000000, 0.000000000000000000, 5.199999999999996625 ) ) ;
#88 = PRODUCT_DEFINITION_FORMATION_WITH_SPECIFIED_SOURCE ( 'LIBOVOLNÝ', '', #86, .NOT_KNOWN. ) ;
#89 = CARTESIAN_POINT ( 'NONE',  ( 0.000000000000000000, 0.000000000000000000, 130.0000000000000000 ) ) ;
#90 = ORIENTED_EDGE ( 'NONE', *, *, #271, .T. ) ;
#91 = DATE_AND_TIME ( #209, #132 ) ;
#92 = ORIENTED_EDGE ( 'NONE', *, *, #38, .F. ) ;
#93 = COORDINATED_UNIVERSAL_TIME_OFFSET ( 1, 0, .AHEAD. ) ;
#94 = ORIENTED_EDGE ( 'NONE', *, *, #78, .T. ) ;
#95 = AXIS2_PLACEMENT_3D ( 'NONE', #107, #175, #247 ) ;
#96 = AXIS2_PLACEMENT_3D ( 'NONE', #231, #83, #254 ) ;
#97 = CC_DESIGN_APPROVAL ( #275, ( #88 ) ) ;
#98 = EDGE_LOOP ( 'NONE', ( #210, #119, #94, #145 ) ) ;
#99 = DATE_AND_TIME ( #24, #172 ) ;
#100 = PLANE ( 'NONE',  #294 ) ;
#101 = PERSON_AND_ORGANIZATION ( #246, #142 ) ;
#102 = DIRECTION ( 'NONE',  ( -0.000000000000000000, -0.000000000000000000, -1.000000000000000000 ) ) ;
#103 = APPROVAL_DATE_TIME ( #91, #27 ) ;
#104 = CC_DESIGN_SECURITY_CLASSIFICATION ( #225, ( #88 ) ) ;
#105 = ADVANCED_FACE ( 'NONE', ( #196 ), #30, .T. ) ;
#106 = ADVANCED_FACE ( 'NONE', ( #155 ), #123, .T. ) ;
#107 = CARTESIAN_POINT ( 'NONE',  ( 0.000000000000000000, 0.000000000000000000, 130.0000000000000000 ) ) ;
#108 = DIRECTION ( 'NONE',  ( -0.000000000000000000, -0.000000000000000000, -1.000000000000000000 ) ) ;
#109 = DIRECTION ( 'NONE',  ( -1.000000000000000000, 0.000000000000000000, 0.000000000000000000 ) ) ;
#110 = AXIS2_PLACEMENT_3D ( 'NONE', #87, #134, #297 ) ;
#111 = APPROVAL_PERSON_ORGANIZATION ( #45, #275, #173 ) ;
#112 = PLANE ( 'NONE',  #278 ) ;
#113 = ORIENTED_EDGE ( 'NONE', *, *, #125, .T. ) ;
#114 = FACE_OUTER_BOUND ( 'NONE', #3, .T. ) ;
#115 = AXIS2_PLACEMENT_3D ( 'NONE', #11, #13, #273 ) ;
#116 = CARTESIAN_POINT ( 'NONE',  ( 0.000000000000000000, 0.000000000000000000, 5.199999999999996625 ) ) ;
#117 = CIRCLE ( 'NONE', #110, 4.250000000000000000 ) ;
#118 = COORDINATED_UNIVERSAL_TIME_OFFSET ( 1, 0, .AHEAD. ) ;
#119 = ORIENTED_EDGE ( 'NONE', *, *, #12, .F. ) ;
#120 = ORIENTED_EDGE ( 'NONE', *, *, #257, .T. ) ;
#121 = PERSON_AND_ORGANIZATION ( #246, #142 ) ;
#122 = ORIENTED_EDGE ( 'NONE', *, *, #184, .F. ) ;
#123 = CYLINDRICAL_SURFACE ( 'NONE', #130, 7.000000000000000000 ) ;
#124 = DIRECTION ( 'NONE',  ( 1.000000000000000000, 0.000000000000000000, 0.000000000000000000 ) ) ;
#125 = EDGE_CURVE ( 'NONE', #252, #181, #55, .T. ) ;
#126 = CIRCLE ( 'NONE', #305, 7.000000000000000000 ) ;
#127 = CIRCLE ( 'NONE', #22, 4.250000000000000000 ) ;
#128 = DIRECTION ( 'NONE',  ( 0.000000000000000000, 0.000000000000000000, -1.000000000000000000 ) ) ;
#129 = VECTOR ( 'NONE', #23, 1000.000000000000000 ) ;
#130 = AXIS2_PLACEMENT_3D ( 'NONE', #296, #242, #216 ) ;
#131 = CARTESIAN_POINT ( 'NONE',  ( 0.000000000000000000, 0.000000000000000000, 5.000000000000000000 ) ) ;
#132 = LOCAL_TIME ( 11, 45, 21.00000000000000000, #243 ) ;
#133 = DIRECTION ( 'NONE',  ( 0.000000000000000000, 0.000000000000000000, 1.000000000000000000 ) ) ;
#134 = DIRECTION ( 'NONE',  ( 0.000000000000000000, 0.000000000000000000, 1.000000000000000000 ) ) ;
#135 = EDGE_CURVE ( 'NONE', #28, #25, #161, .T. ) ;
#136 = CARTESIAN_POINT ( 'NONE',  ( 0.000000000000000000, 0.000000000000000000, 130.0000000000000000 ) ) ;
#137 = FACE_OUTER_BOUND ( 'NONE', #46, .T. ) ;
#138 = ORIENTED_EDGE ( 'NONE', *, *, #14, .T. ) ;
#139 = CC_DESIGN_DATE_AND_TIME_ASSIGNMENT ( #148, #32, ( #225 ) ) ;
#140 = AXIS2_PLACEMENT_3D ( 'NONE', #151, #289, #80 ) ;
#141 = ORIENTED_EDGE ( 'NONE', *, *, #293, .F. ) ;
#142 = ORGANIZATION ( 'NEURÈENÝ', 'NEURÈENÝ', '' ) ;
#143 = EDGE_LOOP ( 'NONE', ( #178, #113, #21, #162 ) ) ;
#144 = PERSON_AND_ORGANIZATION_ROLE ( 'creator' ) ;
#145 = ORIENTED_EDGE ( 'NONE', *, *, #293, .T. ) ;
#146 = PERSON_AND_ORGANIZATION_ROLE ( 'creator' ) ;
#147 = DIRECTION ( 'NONE',  ( 0.000000000000000000, 0.000000000000000000, 1.000000000000000000 ) ) ;
#148 = DATE_AND_TIME ( #214, #281 ) ;
#149 = DIRECTION ( 'NONE',  ( -1.000000000000000000, 0.000000000000000000, 0.000000000000000000 ) ) ;
#150 = APPROVAL_ROLE ( '' ) ;
#151 = CARTESIAN_POINT ( 'NONE',  ( 0.000000000000000000, 0.000000000000000000, 5.000000000000000000 ) ) ;
#152 = CARTESIAN_POINT ( 'NONE',  ( 7.000000000000000000, 8.572527594031473190E-16, 5.000000000000000000 ) ) ;
#153 = AXIS2_PLACEMENT_3D ( 'NONE', #116, #147, #124 ) ;
#154 = AXIS2_PLACEMENT_3D ( 'NONE', #284, #303, #61 ) ;
#155 = FACE_OUTER_BOUND ( 'NONE', #98, .T. ) ;
#156 = EDGE_LOOP ( 'NONE', ( #235, #283 ) ) ;
#157 = ADVANCED_FACE ( 'NONE', ( #8 ), #215, .T. ) ;
#158 = APPROVAL ( #166, 'NEURÈENÝ' ) ;
#159 =( LENGTH_UNIT ( ) NAMED_UNIT ( * ) SI_UNIT ( .MILLI., .METRE. ) );
#160 = PERSON_AND_ORGANIZATION ( #246, #142 ) ;
#161 = CIRCLE ( 'NONE', #306, 0.1999999999999996503 ) ;
#162 = ORIENTED_EDGE ( 'NONE', *, *, #78, .F. ) ;
#163 = VERTEX_POINT ( 'NONE', #249 ) ;
#164 = DIRECTION ( 'NONE',  ( 1.000000000000000000, 0.000000000000000000, 0.000000000000000000 ) ) ;
#165 = ORIENTED_EDGE ( 'NONE', *, *, #270, .F. ) ;
#166 = APPROVAL_STATUS ( 'not_yet_approved' ) ;
#167 = CIRCLE ( 'NONE', #95, 4.250000000000000000 ) ;
#168 = DIRECTION ( 'NONE',  ( 1.000000000000000000, 0.000000000000000000, 0.000000000000000000 ) ) ;
#169 = CARTESIAN_POINT ( 'NONE',  ( -4.450000000000000178, 5.449678256205721784E-16, 4.999999999999998224 ) ) ;
#170 = PLANE ( 'NONE',  #115 ) ;
#171 = CARTESIAN_POINT ( 'NONE',  ( 0.000000000000000000, 0.000000000000000000, 5.199999999999996625 ) ) ;
#172 = LOCAL_TIME ( 11, 45, 21.00000000000000000, #118 ) ;
#173 = APPROVAL_ROLE ( '' ) ;
#174 = DIRECTION ( 'NONE',  ( 0.000000000000000000, -1.000000000000000000, 0.000000000000000000 ) ) ;
#175 = DIRECTION ( 'NONE',  ( 0.000000000000000000, 0.000000000000000000, 1.000000000000000000 ) ) ;
#176 = FACE_OUTER_BOUND ( 'NONE', #71, .T. ) ;
#177 = DIRECTION ( 'NONE',  ( -0.000000000000000000, -0.000000000000000000, -1.000000000000000000 ) ) ;
#178 = ORIENTED_EDGE ( 'NONE', *, *, #49, .F. ) ;
#179 = CARTESIAN_POINT ( 'NONE',  ( -4.250000000000000000, 0.000000000000000000, 130.0000000000000000 ) ) ;
#180 = CC_DESIGN_APPROVAL ( #158, ( #57 ) ) ;
#181 = VERTEX_POINT ( 'NONE', #7 ) ;
#182 = ORIENTED_EDGE ( 'NONE', *, *, #135, .F. ) ;
#183 = ORIENTED_EDGE ( 'NONE', *, *, #14, .F. ) ;
#184 = EDGE_CURVE ( 'NONE', #67, #1, #206, .T. ) ;
#185 = COORDINATED_UNIVERSAL_TIME_OFFSET ( 1, 0, .AHEAD. ) ;
#186 = CIRCLE ( 'NONE', #154, 7.000000000000000000 ) ;
#187 = CARTESIAN_POINT ( 'NONE',  ( 4.250000000000000000, 5.204748896376250699E-16, 130.0000000000000000 ) ) ;
#188 = CC_DESIGN_PERSON_AND_ORGANIZATION_ASSIGNMENT ( #101, #144, ( #57 ) ) ;
#189 = CARTESIAN_POINT ( 'NONE',  ( 4.250000000000000000, 5.204748896376250699E-16, 130.0000000000000000 ) ) ;
#190 = CALENDAR_DATE ( 2022, 20, 6 ) ;
#191 = DIRECTION ( 'NONE',  ( -1.000000000000000000, 0.000000000000000000, 0.000000000000000000 ) ) ;
#192 = DIRECTION ( 'NONE',  ( -0.000000000000000000, -0.000000000000000000, -1.000000000000000000 ) ) ;
#193 = AXIS2_PLACEMENT_3D ( 'NONE', #301, #177, #164 ) ;
#194 = ADVANCED_FACE ( 'NONE', ( #218, #37 ), #100, .T. ) ;
#195 = CC_DESIGN_APPROVAL ( #27, ( #225 ) ) ;
#196 = FACE_OUTER_BOUND ( 'NONE', #230, .T. ) ;
#197 = SHAPE_DEFINITION_REPRESENTATION ( #15, #229 ) ;
#198 = ADVANCED_FACE ( 'NONE', ( #176 ), #58, .T. ) ;
#199 = LINE ( 'NONE', #264, #244 ) ;
#200 = DIRECTION ( 'NONE',  ( -0.000000000000000000, -0.000000000000000000, -1.000000000000000000 ) ) ;
#201 = AXIS2_PLACEMENT_3D ( 'NONE', #171, #133, #295 ) ;
#202 = MECHANICAL_CONTEXT ( 'NONE', #274, 'mechanical' ) ;
#203 = ORIENTED_EDGE ( 'NONE', *, *, #257, .F. ) ;
#204 = CIRCLE ( 'NONE', #223, 4.450000000000000178 ) ;
#205 = DIRECTION ( 'NONE',  ( 0.000000000000000000, 0.000000000000000000, 1.000000000000000000 ) ) ;
#206 = CIRCLE ( 'NONE', #233, 0.1999999999999996503 ) ;
#207 = ORIENTED_EDGE ( 'NONE', *, *, #38, .T. ) ;
#208 = EDGE_CURVE ( 'NONE', #28, #67, #117, .T. ) ;
#209 = CALENDAR_DATE ( 2022, 20, 6 ) ;
#210 = ORIENTED_EDGE ( 'NONE', *, *, #125, .F. ) ;
#211 = APPROVAL_DATE_TIME ( #99, #158 ) ;
#212 = EDGE_LOOP ( 'NONE', ( #285, #138 ) ) ;
#213 = ORIENTED_EDGE ( 'NONE', *, *, #208, .T. ) ;
#214 = CALENDAR_DATE ( 2022, 20, 6 ) ;
#215 = CYLINDRICAL_SURFACE ( 'NONE', #245, 7.000000000000000000 ) ;
#216 = DIRECTION ( 'NONE',  ( -1.000000000000000000, 0.000000000000000000, 0.000000000000000000 ) ) ;
#217 = AXIS2_PLACEMENT_3D ( 'NONE', #267, #52, #149 ) ;
#218 = FACE_BOUND ( 'NONE', #212, .T. ) ;
#219 = FACE_OUTER_BOUND ( 'NONE', #19, .T. ) ;
#220 = PRODUCT_RELATED_PRODUCT_CATEGORY ( 'detail', '', ( #86 ) ) ;
#221 = CARTESIAN_POINT ( 'NONE',  ( 0.000000000000000000, 0.000000000000000000, 5.000000000000000000 ) ) ;
#222 = DIRECTION ( 'NONE',  ( 1.000000000000000000, 0.000000000000000000, -0.000000000000000000 ) ) ;
#223 = AXIS2_PLACEMENT_3D ( 'NONE', #69, #287, #168 ) ;
#224 = CIRCLE ( 'NONE', #193, 4.450000000000000178 ) ;
#225 = SECURITY_CLASSIFICATION ( '', '', #288 ) ;
#226 =( NAMED_UNIT ( * ) PLANE_ANGLE_UNIT ( ) SI_UNIT ( $, .RADIAN. ) );
#227 = APPLICATION_CONTEXT ( 'configuration controlled 3d designs of mechanical parts and assemblies' ) ;
#228 = DIRECTION ( 'NONE',  ( 0.000000000000000000, 0.000000000000000000, 1.000000000000000000 ) ) ;
#229 = ADVANCED_BREP_SHAPE_REPRESENTATION ( 'ff86', ( #17, #268 ), #35 ) ;
#230 = EDGE_LOOP ( 'NONE', ( #304, #42, #207, #203 ) ) ;
#231 = CARTESIAN_POINT ( 'NONE',  ( 0.000000000000000000, 0.000000000000000000, 0.000000000000000000 ) ) ;
#232 = ORIENTED_EDGE ( 'NONE', *, *, #208, .F. ) ;
#233 = AXIS2_PLACEMENT_3D ( 'NONE', #36, #174, #128 ) ;
#234 = APPROVAL_PERSON_ORGANIZATION ( #48, #27, #150 ) ;
#235 = ORIENTED_EDGE ( 'NONE', *, *, #12, .T. ) ;
#236 = VERTEX_POINT ( 'NONE', #179 ) ;
#237 = CALENDAR_DATE ( 2022, 20, 6 ) ;
#238 = VERTEX_POINT ( 'NONE', #18 ) ;
#239 = APPROVAL_STATUS ( 'not_yet_approved' ) ;
#240 = CARTESIAN_POINT ( 'NONE',  ( 0.000000000000000000, 0.000000000000000000, 5.199999999999996625 ) ) ;
#241 = CC_DESIGN_DATE_AND_TIME_ASSIGNMENT ( #290, #2, ( #57 ) ) ;
#242 = DIRECTION ( 'NONE',  ( -0.000000000000000000, -0.000000000000000000, -1.000000000000000000 ) ) ;
#243 = COORDINATED_UNIVERSAL_TIME_OFFSET ( 1, 0, .AHEAD. ) ;
#244 = VECTOR ( 'NONE', #108, 1000.000000000000000 ) ;
#245 = AXIS2_PLACEMENT_3D ( 'NONE', #221, #102, #109 ) ;
#246 = PERSON ( 'NEURÈENÝ', 'NEURÈENÝ', 'NEURÈENÝ', ('NEURÈENÝ'), ('NEURÈENÝ'), ('NEURÈENÝ') ) ;
#247 = DIRECTION ( 'NONE',  ( 1.000000000000000000, 0.000000000000000000, 0.000000000000000000 ) ) ;
#248 = CC_DESIGN_PERSON_AND_ORGANIZATION_ASSIGNMENT ( #41, #280, ( #86 ) ) ;
#249 = CARTESIAN_POINT ( 'NONE',  ( -7.000000000000000000, 0.000000000000000000, 0.000000000000000000 ) ) ;
#250 = CIRCLE ( 'NONE', #153, 4.250000000000000000 ) ;
#251 = CARTESIAN_POINT ( 'NONE',  ( 0.000000000000000000, 0.000000000000000000, 130.0000000000000000 ) ) ;
#252 = VERTEX_POINT ( 'NONE', #20 ) ;
#253 = LINE ( 'NONE', #64, #260 ) ;
#254 = DIRECTION ( 'NONE',  ( 1.000000000000000000, 0.000000000000000000, 0.000000000000000000 ) ) ;
#255 = CARTESIAN_POINT ( 'NONE',  ( 0.000000000000000000, 0.000000000000000000, 5.000000000000000000 ) ) ;
#256 = EDGE_LOOP ( 'NONE', ( #232, #261, #259, #122 ) ) ;
#257 = EDGE_CURVE ( 'NONE', #236, #28, #253, .T. ) ;
#258 = CARTESIAN_POINT ( 'NONE',  ( 0.000000000000000000, 0.000000000000000000, 0.000000000000000000 ) ) ;
#259 = ORIENTED_EDGE ( 'NONE', *, *, #302, .F. ) ;
#260 = VECTOR ( 'NONE', #200, 1000.000000000000000 ) ;
#261 = ORIENTED_EDGE ( 'NONE', *, *, #135, .T. ) ;
#262 = ORIENTED_EDGE ( 'NONE', *, *, #271, .F. ) ;
#263 = PERSON_AND_ORGANIZATION_ROLE ( 'classification_officer' ) ;
#264 = CARTESIAN_POINT ( 'NONE',  ( -7.000000000000000000, 0.000000000000000000, 5.000000000000000000 ) ) ;
#265 = APPROVAL_STATUS ( 'not_yet_approved' ) ;
#266 = VECTOR ( 'NONE', #192, 1000.000000000000000 ) ;
#267 = CARTESIAN_POINT ( 'NONE',  ( 0.000000000000000000, 0.000000000000000000, 130.0000000000000000 ) ) ;
#268 = AXIS2_PLACEMENT_3D ( 'NONE', #258, #60, #279 ) ;
#269 = PERSON_AND_ORGANIZATION_ROLE ( 'design_supplier' ) ;
#270 = EDGE_CURVE ( 'NONE', #181, #163, #186, .T. ) ;
#271 = EDGE_CURVE ( 'NONE', #236, #6, #127, .T. ) ;
#272 = CIRCLE ( 'NONE', #96, 7.000000000000000000 ) ;
#273 = DIRECTION ( 'NONE',  ( 1.000000000000000000, 0.000000000000000000, -0.000000000000000000 ) ) ;
#274 = APPLICATION_CONTEXT ( 'configuration controlled 3d designs of mechanical parts and assemblies' ) ;
#275 = APPROVAL ( #265, 'NEURÈENÝ' ) ;
#276 = DIRECTION ( 'NONE',  ( -1.000000000000000000, 1.224646799147353454E-16, 0.000000000000000000 ) ) ;
#277 = CIRCLE ( 'NONE', #140, 7.000000000000000000 ) ;
#278 = AXIS2_PLACEMENT_3D ( 'NONE', #89, #205, #222 ) ;
#279 = DIRECTION ( 'NONE',  ( 1.000000000000000000, 0.000000000000000000, 0.000000000000000000 ) ) ;
#280 = PERSON_AND_ORGANIZATION_ROLE ( 'design_owner' ) ;
#281 = LOCAL_TIME ( 11, 45, 21.00000000000000000, #53 ) ;
#282 =( NAMED_UNIT ( * ) SI_UNIT ( $, .STERADIAN. ) SOLID_ANGLE_UNIT ( ) );
#283 = ORIENTED_EDGE ( 'NONE', *, *, #49, .T. ) ;
#284 = CARTESIAN_POINT ( 'NONE',  ( 0.000000000000000000, 0.000000000000000000, 0.000000000000000000 ) ) ;
#285 = ORIENTED_EDGE ( 'NONE', *, *, #302, .T. ) ;
#286 = DIRECTION ( 'NONE',  ( 0.000000000000000000, 0.000000000000000000, 1.000000000000000000 ) ) ;
#287 = DIRECTION ( 'NONE',  ( -0.000000000000000000, -0.000000000000000000, -1.000000000000000000 ) ) ;
#288 = SECURITY_CLASSIFICATION_LEVEL ( 'unclassified' ) ;
#289 = DIRECTION ( 'NONE',  ( 0.000000000000000000, 0.000000000000000000, 1.000000000000000000 ) ) ;
#290 = DATE_AND_TIME ( #190, #77 ) ;
#291 = DIRECTION ( 'NONE',  ( 0.000000000000000000, 0.000000000000000000, 1.000000000000000000 ) ) ;
#292 = AXIS2_PLACEMENT_3D ( 'NONE', #240, #81, #10 ) ;
#293 = EDGE_CURVE ( 'NONE', #163, #181, #272, .T. ) ;
#294 = AXIS2_PLACEMENT_3D ( 'NONE', #131, #291, #82 ) ;
#295 = DIRECTION ( 'NONE',  ( 1.000000000000000000, 0.000000000000000000, 0.000000000000000000 ) ) ;
#296 = CARTESIAN_POINT ( 'NONE',  ( 0.000000000000000000, 0.000000000000000000, 5.000000000000000000 ) ) ;
#297 = DIRECTION ( 'NONE',  ( 1.000000000000000000, 0.000000000000000000, 0.000000000000000000 ) ) ;
#298 = UNCERTAINTY_MEASURE_WITH_UNIT (LENGTH_MEASURE( 1.000000000000000082E-05 ), #159, 'distance_accuracy_value', 'NONE');
#299 = ADVANCED_FACE ( 'NONE', ( #114 ), #112, .T. ) ;
#300 = APPROVAL_PERSON_ORGANIZATION ( #160, #158, #76 ) ;
#301 = CARTESIAN_POINT ( 'NONE',  ( 0.000000000000000000, 0.000000000000000000, 5.000000000000000000 ) ) ;
#302 = EDGE_CURVE ( 'NONE', #1, #25, #224, .T. ) ;
#303 = DIRECTION ( 'NONE',  ( 0.000000000000000000, 0.000000000000000000, 1.000000000000000000 ) ) ;
#304 = ORIENTED_EDGE ( 'NONE', *, *, #66, .F. ) ;
#305 = AXIS2_PLACEMENT_3D ( 'NONE', #255, #286, #40 ) ;
#306 = AXIS2_PLACEMENT_3D ( 'NONE', #33, #39, #276 ) ;
#307 = CC_DESIGN_PERSON_AND_ORGANIZATION_ASSIGNMENT ( #121, #146, ( #88 ) ) ;
ENDSEC;
END-ISO-10303-21;
