ISO-10303-21;
HEADER;
FILE_DESCRIPTION (( 'STEP AP203' ),
    '1' );
FILE_NAME ('2462.STEP',
    '2022-06-20T09:48:15',
    ( '' ),
    ( '' ),
    'SwSTEP 2.0',
    'SolidWorks 2019',
    '' );
FILE_SCHEMA (( 'CONFIG_CONTROL_DESIGN' ));
ENDSEC;

DATA;
#1 = CARTESIAN_POINT ( 'NONE',  ( 7.000000000000000000, 8.572527594031473190E-16, 5.000000000000000000 ) ) ;
#2 = AXIS2_PLACEMENT_3D ( 'NONE', #72, #271, #120 ) ;
#3 = DESIGN_CONTEXT ( 'detailed design', #114, 'design' ) ;
#4 = ADVANCED_FACE ( 'NONE', ( #296 ), #95, .T. ) ;
#5 = DIRECTION ( 'NONE',  ( 1.000000000000000000, 0.000000000000000000, 0.000000000000000000 ) ) ;
#6 = DATE_AND_TIME ( #113, #108 ) ;
#7 = DIRECTION ( 'NONE',  ( 0.000000000000000000, 0.000000000000000000, -1.000000000000000000 ) ) ;
#8 = ORIENTED_EDGE ( 'NONE', *, *, #128, .F. ) ;
#9 = DIRECTION ( 'NONE',  ( 0.000000000000000000, 0.000000000000000000, 1.000000000000000000 ) ) ;
#10 = ORIENTED_EDGE ( 'NONE', *, *, #134, .T. ) ;
#11 = MANIFOLD_SOLID_BREP ( 'Zaoblit1', #190 ) ;
#12 = DIRECTION ( 'NONE',  ( -0.000000000000000000, -0.000000000000000000, -1.000000000000000000 ) ) ;
#13 = EDGE_LOOP ( 'NONE', ( #8, #253 ) ) ;
#14 = ORIENTED_EDGE ( 'NONE', *, *, #184, .T. ) ;
#15 = CARTESIAN_POINT ( 'NONE',  ( 0.000000000000000000, 0.000000000000000000, 505.0000000000000000 ) ) ;
#16 = ORIENTED_EDGE ( 'NONE', *, *, #121, .T. ) ;
#17 = EDGE_LOOP ( 'NONE', ( #148, #34, #29, #123 ) ) ;
#18 = APPROVAL ( #161, 'NEURÈENÝ' ) ;
#19 = LINE ( 'NONE', #1, #267 ) ;
#20 = AXIS2_PLACEMENT_3D ( 'NONE', #261, #284, #5 ) ;
#21 = DIRECTION ( 'NONE',  ( -1.000000000000000000, 0.000000000000000000, 0.000000000000000000 ) ) ;
#22 = DIRECTION ( 'NONE',  ( 1.000000000000000000, 0.000000000000000000, 0.000000000000000000 ) ) ;
#23 = CARTESIAN_POINT ( 'NONE',  ( 4.000000000000000000, 4.898587196589412829E-16, 505.0000000000000000 ) ) ;
#24 = AXIS2_PLACEMENT_3D ( 'NONE', #141, #32, #295 ) ;
#25 = COORDINATED_UNIVERSAL_TIME_OFFSET ( 1, 0, .AHEAD. ) ;
#26 = CIRCLE ( 'NONE', #30, 7.000000000000000000 ) ;
#27 = APPROVAL_ROLE ( '' ) ;
#28 = COORDINATED_UNIVERSAL_TIME_OFFSET ( 1, 0, .AHEAD. ) ;
#29 = ORIENTED_EDGE ( 'NONE', *, *, #142, .T. ) ;
#30 = AXIS2_PLACEMENT_3D ( 'NONE', #71, #33, #22 ) ;
#31 = ADVANCED_FACE ( 'NONE', ( #169 ), #100, .F. ) ;
#32 = DIRECTION ( 'NONE',  ( 1.224646799147353207E-16, 1.000000000000000000, -0.000000000000000000 ) ) ;
#33 = DIRECTION ( 'NONE',  ( 0.000000000000000000, 0.000000000000000000, 1.000000000000000000 ) ) ;
#34 = ORIENTED_EDGE ( 'NONE', *, *, #66, .F. ) ;
#35 = CARTESIAN_POINT ( 'NONE',  ( 0.000000000000000000, 0.000000000000000000, 0.000000000000000000 ) ) ;
#36 = ORIENTED_EDGE ( 'NONE', *, *, #242, .T. ) ;
#37 = CARTESIAN_POINT ( 'NONE',  ( -7.000000000000000000, 0.000000000000000000, 0.000000000000000000 ) ) ;
#38 = ORIENTED_EDGE ( 'NONE', *, *, #121, .F. ) ;
#39 = DIRECTION ( 'NONE',  ( -0.000000000000000000, -0.000000000000000000, -1.000000000000000000 ) ) ;
#40 = COORDINATED_UNIVERSAL_TIME_OFFSET ( 1, 0, .AHEAD. ) ;
#41 = APPLICATION_PROTOCOL_DEFINITION ( 'international standard', 'config_control_design', 1994, #114 ) ;
#42 = CIRCLE ( 'NONE', #288, 7.000000000000000000 ) ;
#43 = PERSON_AND_ORGANIZATION ( #212, #231 ) ;
#44 = AXIS2_PLACEMENT_3D ( 'NONE', #154, #105, #192 ) ;
#45 = CALENDAR_DATE ( 2022, 20, 6 ) ;
#46 = EDGE_CURVE ( 'NONE', #191, #241, #165, .T. ) ;
#47 = VERTEX_POINT ( 'NONE', #117 ) ;
#48 = CARTESIAN_POINT ( 'NONE',  ( 0.000000000000000000, 0.000000000000000000, 505.0000000000000000 ) ) ;
#49 = CC_DESIGN_APPROVAL ( #281, ( #174 ) ) ;
#50 = CARTESIAN_POINT ( 'NONE',  ( -4.000000000000000000, 0.000000000000000000, 5.199999999999982414 ) ) ;
#51 = ADVANCED_FACE ( 'NONE', ( #98 ), #299, .F. ) ;
#52 = CARTESIAN_POINT ( 'NONE',  ( 0.000000000000000000, 0.000000000000000000, 5.199999999999982414 ) ) ;
#53 = DIRECTION ( 'NONE',  ( 0.000000000000000000, 0.000000000000000000, 1.000000000000000000 ) ) ;
#54 = EDGE_LOOP ( 'NONE', ( #119, #99, #217, #145 ) ) ;
#55 = DIRECTION ( 'NONE',  ( 1.000000000000000000, 0.000000000000000000, 0.000000000000000000 ) ) ;
#56 = ORIENTED_EDGE ( 'NONE', *, *, #179, .F. ) ;
#57 = CYLINDRICAL_SURFACE ( 'NONE', #264, 7.000000000000000000 ) ;
#58 = AXIS2_PLACEMENT_3D ( 'NONE', #15, #164, #172 ) ;
#59 = PRODUCT_RELATED_PRODUCT_CATEGORY ( 'detail', '', ( #201 ) ) ;
#60 = DIRECTION ( 'NONE',  ( 1.000000000000000000, 0.000000000000000000, -0.000000000000000000 ) ) ;
#61 = AXIS2_PLACEMENT_3D ( 'NONE', #48, #274, #187 ) ;
#62 = PERSON_AND_ORGANIZATION ( #212, #231 ) ;
#63 = APPROVAL_DATE_TIME ( #82, #263 ) ;
#64 = PERSON_AND_ORGANIZATION ( #212, #231 ) ;
#65 = CIRCLE ( 'NONE', #229, 4.000000000000000000 ) ;
#66 = EDGE_CURVE ( 'NONE', #265, #298, #65, .T. ) ;
#67 = ORIENTED_EDGE ( 'NONE', *, *, #86, .T. ) ;
#68 = FACE_OUTER_BOUND ( 'NONE', #17, .T. ) ;
#69 = EDGE_LOOP ( 'NONE', ( #138, #215, #102, #75 ) ) ;
#70 = LINE ( 'NONE', #167, #207 ) ;
#71 = CARTESIAN_POINT ( 'NONE',  ( 0.000000000000000000, 0.000000000000000000, 5.000000000000000000 ) ) ;
#72 = CARTESIAN_POINT ( 'NONE',  ( 0.000000000000000000, 0.000000000000000000, 5.199999999999982414 ) ) ;
#73 = EDGE_LOOP ( 'NONE', ( #56, #38, #67, #275 ) ) ;
#74 = DIRECTION ( 'NONE',  ( 0.000000000000000000, 0.000000000000000000, 1.000000000000000000 ) ) ;
#75 = ORIENTED_EDGE ( 'NONE', *, *, #155, .F. ) ;
#76 = ADVANCED_FACE ( 'NONE', ( #182 ), #170, .F. ) ;
#77 = DIRECTION ( 'NONE',  ( -1.000000000000000000, 0.000000000000000000, 0.000000000000000000 ) ) ;
#78 = CARTESIAN_POINT ( 'NONE',  ( -4.000000000000000000, 0.000000000000000000, 505.0000000000000000 ) ) ;
#79 =( GEOMETRIC_REPRESENTATION_CONTEXT ( 3 ) GLOBAL_UNCERTAINTY_ASSIGNED_CONTEXT ( ( #204 ) ) GLOBAL_UNIT_ASSIGNED_CONTEXT ( ( #195, #301, #304 ) ) REPRESENTATION_CONTEXT ( 'NONE', 'WORKASPACE' ) );
#80 = SECURITY_CLASSIFICATION ( '', '', #205 ) ;
#81 = DIRECTION ( 'NONE',  ( -0.000000000000000000, -0.000000000000000000, -1.000000000000000000 ) ) ;
#82 = DATE_AND_TIME ( #45, #94 ) ;
#83 = DATE_AND_TIME ( #260, #223 ) ;
#84 = AXIS2_PLACEMENT_3D ( 'NONE', #305, #199, #77 ) ;
#85 = COORDINATED_UNIVERSAL_TIME_OFFSET ( 1, 0, .AHEAD. ) ;
#86 = EDGE_CURVE ( 'NONE', #47, #191, #111, .T. ) ;
#87 = PERSON_AND_ORGANIZATION ( #212, #231 ) ;
#88 = AXIS2_PLACEMENT_3D ( 'NONE', #139, #12, #243 ) ;
#89 = APPROVAL_STATUS ( 'not_yet_approved' ) ;
#90 = DIRECTION ( 'NONE',  ( 0.000000000000000000, 0.000000000000000000, 1.000000000000000000 ) ) ;
#91 = CARTESIAN_POINT ( 'NONE',  ( 0.000000000000000000, 0.000000000000000000, 5.199999999999982414 ) ) ;
#92 = CIRCLE ( 'NONE', #278, 4.000000000000000000 ) ;
#93 = DIRECTION ( 'NONE',  ( 0.000000000000000000, 0.000000000000000000, 1.000000000000000000 ) ) ;
#94 = LOCAL_TIME ( 11, 48, 15.00000000000000000, #40 ) ;
#95 = PLANE ( 'NONE',  #61 ) ;
#96 = EDGE_LOOP ( 'NONE', ( #127, #219 ) ) ;
#97 = EDGE_CURVE ( 'NONE', #166, #47, #272, .T. ) ;
#98 = FACE_OUTER_BOUND ( 'NONE', #13, .T. ) ;
#99 = ORIENTED_EDGE ( 'NONE', *, *, #134, .F. ) ;
#100 = TOROIDAL_SURFACE ( 'NONE', #2, 4.200000000000000178, 0.2000000000000000111 ) ;
#101 = CARTESIAN_POINT ( 'NONE',  ( 7.000000000000000000, 8.572527594031473190E-16, 0.000000000000000000 ) ) ;
#102 = ORIENTED_EDGE ( 'NONE', *, *, #196, .T. ) ;
#103 = CIRCLE ( 'NONE', #235, 4.200000000000000178 ) ;
#104 = APPROVAL_PERSON_ORGANIZATION ( #87, #263, #109 ) ;
#105 = DIRECTION ( 'NONE',  ( 0.000000000000000000, 0.000000000000000000, 1.000000000000000000 ) ) ;
#106 = DIRECTION ( 'NONE',  ( 1.000000000000000000, 0.000000000000000000, 0.000000000000000000 ) ) ;
#107 = DIRECTION ( 'NONE',  ( -0.000000000000000000, -0.000000000000000000, -1.000000000000000000 ) ) ;
#108 = LOCAL_TIME ( 11, 48, 15.00000000000000000, #28 ) ;
#109 = APPROVAL_ROLE ( '' ) ;
#110 = PERSON_AND_ORGANIZATION_ROLE ( 'classification_officer' ) ;
#111 = CIRCLE ( 'NONE', #292, 0.1999999999999996503 ) ;
#112 = ADVANCED_FACE ( 'NONE', ( #68 ), #270, .T. ) ;
#113 = CALENDAR_DATE ( 2022, 20, 6 ) ;
#114 = APPLICATION_CONTEXT ( 'configuration controlled 3d designs of mechanical parts and assemblies' ) ;
#115 = CARTESIAN_POINT ( 'NONE',  ( 4.200000000000000178, 0.000000000000000000, 5.199999999999982414 ) ) ;
#116 = EDGE_LOOP ( 'NONE', ( #273, #36, #16, #300 ) ) ;
#117 = CARTESIAN_POINT ( 'NONE',  ( 4.000000000000000000, 4.898587196589412829E-16, 5.199999999999982414 ) ) ;
#118 = DIRECTION ( 'NONE',  ( 0.000000000000000000, 0.000000000000000000, 1.000000000000000000 ) ) ;
#119 = ORIENTED_EDGE ( 'NONE', *, *, #302, .F. ) ;
#120 = DIRECTION ( 'NONE',  ( 1.000000000000000000, 0.000000000000000000, 0.000000000000000000 ) ) ;
#121 = EDGE_CURVE ( 'NONE', #47, #166, #92, .T. ) ;
#122 = VECTOR ( 'NONE', #130, 1000.000000000000000 ) ;
#123 = ORIENTED_EDGE ( 'NONE', *, *, #97, .T. ) ;
#124 = DIRECTION ( 'NONE',  ( 1.000000000000000000, 0.000000000000000000, 0.000000000000000000 ) ) ;
#125 = ORIENTED_EDGE ( 'NONE', *, *, #46, .F. ) ;
#126 = CARTESIAN_POINT ( 'NONE',  ( -7.000000000000000000, 0.000000000000000000, 5.000000000000000000 ) ) ;
#127 = ORIENTED_EDGE ( 'NONE', *, *, #46, .T. ) ;
#128 = EDGE_CURVE ( 'NONE', #240, #188, #42, .T. ) ;
#129 = FACE_BOUND ( 'NONE', #96, .T. ) ;
#130 = DIRECTION ( 'NONE',  ( -0.000000000000000000, -0.000000000000000000, -1.000000000000000000 ) ) ;
#131 = CARTESIAN_POINT ( 'NONE',  ( 0.000000000000000000, 0.000000000000000000, 505.0000000000000000 ) ) ;
#132 = CALENDAR_DATE ( 2022, 20, 6 ) ;
#133 = SHAPE_DEFINITION_REPRESENTATION ( #160, #144 ) ;
#134 = EDGE_CURVE ( 'NONE', #251, #150, #255, .T. ) ;
#135 = AXIS2_PLACEMENT_3D ( 'NONE', #137, #53, #245 ) ;
#136 = DATE_TIME_ROLE ( 'creation_date' ) ;
#137 = CARTESIAN_POINT ( 'NONE',  ( 0.000000000000000000, 0.000000000000000000, 0.000000000000000000 ) ) ;
#138 = ORIENTED_EDGE ( 'NONE', *, *, #184, .F. ) ;
#139 = CARTESIAN_POINT ( 'NONE',  ( 0.000000000000000000, 0.000000000000000000, 5.000000000000000000 ) ) ;
#140 = AXIS2_PLACEMENT_3D ( 'NONE', #218, #153, #60 ) ;
#141 = CARTESIAN_POINT ( 'NONE',  ( -4.200000000000000178, 5.143516556418882928E-16, 5.199999999999982414 ) ) ;
#142 = EDGE_CURVE ( 'NONE', #265, #166, #246, .T. ) ;
#143 = CARTESIAN_POINT ( 'NONE',  ( 0.000000000000000000, 0.000000000000000000, 5.199999999999982414 ) ) ;
#144 = ADVANCED_BREP_SHAPE_REPRESENTATION ( '2462', ( #11, #20 ), #79 ) ;
#145 = ORIENTED_EDGE ( 'NONE', *, *, #128, .T. ) ;
#146 = DIRECTION ( 'NONE',  ( 1.000000000000000000, 0.000000000000000000, 0.000000000000000000 ) ) ;
#147 = AXIS2_PLACEMENT_3D ( 'NONE', #228, #256, #106 ) ;
#148 = ORIENTED_EDGE ( 'NONE', *, *, #242, .F. ) ;
#149 = FACE_OUTER_BOUND ( 'NONE', #116, .T. ) ;
#150 = VERTEX_POINT ( 'NONE', #293 ) ;
#151 = CARTESIAN_POINT ( 'NONE',  ( 4.000000000000000000, 4.898587196589412829E-16, 505.0000000000000000 ) ) ;
#152 = VECTOR ( 'NONE', #183, 1000.000000000000000 ) ;
#153 = DIRECTION ( 'NONE',  ( 0.000000000000000000, 0.000000000000000000, 1.000000000000000000 ) ) ;
#154 = CARTESIAN_POINT ( 'NONE',  ( 0.000000000000000000, 0.000000000000000000, 505.0000000000000000 ) ) ;
#155 = EDGE_CURVE ( 'NONE', #251, #240, #70, .T. ) ;
#156 = PERSON_AND_ORGANIZATION ( #212, #231 ) ;
#157 = CALENDAR_DATE ( 2022, 20, 6 ) ;
#158 = CIRCLE ( 'NONE', #24, 0.1999999999999996503 ) ;
#159 = CC_DESIGN_SECURITY_CLASSIFICATION ( #80, ( #174 ) ) ;
#160 = PRODUCT_DEFINITION_SHAPE ( 'NONE', 'NONE',  #227 ) ;
#161 = APPROVAL_STATUS ( 'not_yet_approved' ) ;
#162 = APPROVAL_ROLE ( '' ) ;
#163 = PERSON_AND_ORGANIZATION ( #212, #231 ) ;
#164 = DIRECTION ( 'NONE',  ( -0.000000000000000000, -0.000000000000000000, -1.000000000000000000 ) ) ;
#165 = CIRCLE ( 'NONE', #88, 4.200000000000000178 ) ;
#166 = VERTEX_POINT ( 'NONE', #50 ) ;
#167 = CARTESIAN_POINT ( 'NONE',  ( -7.000000000000000000, 0.000000000000000000, 5.000000000000000000 ) ) ;
#168 = CARTESIAN_POINT ( 'NONE',  ( 0.000000000000000000, 0.000000000000000000, 505.0000000000000000 ) ) ;
#169 = FACE_OUTER_BOUND ( 'NONE', #194, .T. ) ;
#170 = TOROIDAL_SURFACE ( 'NONE', #233, 4.200000000000000178, 0.2000000000000000111 ) ;
#171 = EDGE_LOOP ( 'NONE', ( #211, #291 ) ) ;
#172 = DIRECTION ( 'NONE',  ( -1.000000000000000000, 0.000000000000000000, 0.000000000000000000 ) ) ;
#173 = ORIENTED_EDGE ( 'NONE', *, *, #179, .T. ) ;
#174 = PRODUCT_DEFINITION_FORMATION_WITH_SPECIFIED_SOURCE ( 'LIBOVOLNÝ', '', #201, .NOT_KNOWN. ) ;
#175 = PLANE ( 'NONE',  #140 ) ;
#176 = CARTESIAN_POINT ( 'NONE',  ( -4.200000000000000178, 5.143516556418882928E-16, 4.999999999999991118 ) ) ;
#177 = CARTESIAN_POINT ( 'NONE',  ( 0.000000000000000000, 0.000000000000000000, 5.000000000000000000 ) ) ;
#178 = PERSON_AND_ORGANIZATION ( #212, #231 ) ;
#179 = EDGE_CURVE ( 'NONE', #166, #241, #158, .T. ) ;
#180 = APPROVAL_STATUS ( 'not_yet_approved' ) ;
#181 = DATE_AND_TIME ( #157, #303 ) ;
#182 = FACE_OUTER_BOUND ( 'NONE', #73, .T. ) ;
#183 = DIRECTION ( 'NONE',  ( -0.000000000000000000, -0.000000000000000000, -1.000000000000000000 ) ) ;
#184 = EDGE_CURVE ( 'NONE', #150, #251, #26, .T. ) ;
#185 = CARTESIAN_POINT ( 'NONE',  ( -4.000000000000000000, 0.000000000000000000, 505.0000000000000000 ) ) ;
#186 = APPROVAL_PERSON_ORGANIZATION ( #62, #281, #162 ) ;
#187 = DIRECTION ( 'NONE',  ( 1.000000000000000000, 0.000000000000000000, -0.000000000000000000 ) ) ;
#188 = VERTEX_POINT ( 'NONE', #101 ) ;
#189 = DIRECTION ( 'NONE',  ( 1.000000000000000000, 0.000000000000000000, 0.000000000000000000 ) ) ;
#190 = CLOSED_SHELL ( 'NONE', ( #31, #203, #226, #262, #277, #51, #112, #4, #76 ) ) ;
#191 = VERTEX_POINT ( 'NONE', #225 ) ;
#192 = DIRECTION ( 'NONE',  ( 1.000000000000000000, 0.000000000000000000, 0.000000000000000000 ) ) ;
#193 = CIRCLE ( 'NONE', #147, 7.000000000000000000 ) ;
#194 = EDGE_LOOP ( 'NONE', ( #289, #173, #125, #247 ) ) ;
#195 =( LENGTH_UNIT ( ) NAMED_UNIT ( * ) SI_UNIT ( .MILLI., .METRE. ) );
#196 = EDGE_CURVE ( 'NONE', #188, #240, #193, .T. ) ;
#197 = CYLINDRICAL_SURFACE ( 'NONE', #222, 4.000000000000000000 ) ;
#198 = CC_DESIGN_PERSON_AND_ORGANIZATION_ASSIGNMENT ( #43, #110, ( #80 ) ) ;
#199 = DIRECTION ( 'NONE',  ( -0.000000000000000000, -0.000000000000000000, -1.000000000000000000 ) ) ;
#200 = APPROVAL_DATE_TIME ( #6, #18 ) ;
#201 = PRODUCT ( '2462', '2462', '', ( #282 ) ) ;
#202 = PERSON_AND_ORGANIZATION ( #212, #231 ) ;
#203 = ADVANCED_FACE ( 'NONE', ( #149 ), #197, .T. ) ;
#204 = UNCERTAINTY_MEASURE_WITH_UNIT (LENGTH_MEASURE( 1.000000000000000082E-05 ), #195, 'distance_accuracy_value', 'NONE');
#205 = SECURITY_CLASSIFICATION_LEVEL ( 'unclassified' ) ;
#206 = CC_DESIGN_PERSON_AND_ORGANIZATION_ASSIGNMENT ( #64, #287, ( #174 ) ) ;
#207 = VECTOR ( 'NONE', #268, 1000.000000000000000 ) ;
#208 = DIRECTION ( 'NONE',  ( 0.000000000000000000, -1.000000000000000000, 0.000000000000000000 ) ) ;
#209 = EDGE_LOOP ( 'NONE', ( #10, #14 ) ) ;
#210 = DIRECTION ( 'NONE',  ( 0.000000000000000000, 0.000000000000000000, 1.000000000000000000 ) ) ;
#211 = ORIENTED_EDGE ( 'NONE', *, *, #66, .T. ) ;
#212 = PERSON ( 'NEURÈENÝ', 'NEURÈENÝ', 'NEURÈENÝ', ('NEURÈENÝ'), ('NEURÈENÝ'), ('NEURÈENÝ') ) ;
#213 = DIRECTION ( 'NONE',  ( 1.000000000000000000, 0.000000000000000000, 0.000000000000000000 ) ) ;
#214 = LOCAL_TIME ( 11, 48, 15.00000000000000000, #85 ) ;
#215 = ORIENTED_EDGE ( 'NONE', *, *, #302, .T. ) ;
#216 = CARTESIAN_POINT ( 'NONE',  ( 0.000000000000000000, 0.000000000000000000, 5.000000000000000000 ) ) ;
#217 = ORIENTED_EDGE ( 'NONE', *, *, #155, .T. ) ;
#218 = CARTESIAN_POINT ( 'NONE',  ( 0.000000000000000000, 0.000000000000000000, 5.000000000000000000 ) ) ;
#219 = ORIENTED_EDGE ( 'NONE', *, *, #237, .T. ) ;
#220 = FACE_OUTER_BOUND ( 'NONE', #54, .T. ) ;
#221 = CIRCLE ( 'NONE', #44, 4.000000000000000000 ) ;
#222 = AXIS2_PLACEMENT_3D ( 'NONE', #131, #39, #21 ) ;
#223 = LOCAL_TIME ( 11, 48, 15.00000000000000000, #234 ) ;
#224 = APPLICATION_CONTEXT ( 'configuration controlled 3d designs of mechanical parts and assemblies' ) ;
#225 = CARTESIAN_POINT ( 'NONE',  ( 4.200000000000000178, 0.000000000000000000, 4.999999999999991118 ) ) ;
#226 = ADVANCED_FACE ( 'NONE', ( #306 ), #57, .T. ) ;
#227 = PRODUCT_DEFINITION ( 'NEZNÁMÝ', '', #174, #3 ) ;
#228 = CARTESIAN_POINT ( 'NONE',  ( 0.000000000000000000, 0.000000000000000000, 0.000000000000000000 ) ) ;
#229 = AXIS2_PLACEMENT_3D ( 'NONE', #168, #118, #124 ) ;
#230 = DIRECTION ( 'NONE',  ( -1.000000000000000000, 0.000000000000000000, 0.000000000000000000 ) ) ;
#231 = ORGANIZATION ( 'NEURÈENÝ', 'NEURÈENÝ', '' ) ;
#232 = PERSON_AND_ORGANIZATION_ROLE ( 'creator' ) ;
#233 = AXIS2_PLACEMENT_3D ( 'NONE', #52, #90, #146 ) ;
#234 = COORDINATED_UNIVERSAL_TIME_OFFSET ( 1, 0, .AHEAD. ) ;
#235 = AXIS2_PLACEMENT_3D ( 'NONE', #177, #107, #55 ) ;
#236 = DATE_TIME_ROLE ( 'classification_date' ) ;
#237 = EDGE_CURVE ( 'NONE', #241, #191, #103, .T. ) ;
#238 = APPROVAL_DATE_TIME ( #181, #281 ) ;
#239 = CC_DESIGN_DATE_AND_TIME_ASSIGNMENT ( #283, #136, ( #227 ) ) ;
#240 = VERTEX_POINT ( 'NONE', #37 ) ;
#241 = VERTEX_POINT ( 'NONE', #176 ) ;
#242 = EDGE_CURVE ( 'NONE', #298, #47, #254, .T. ) ;
#243 = DIRECTION ( 'NONE',  ( 1.000000000000000000, 0.000000000000000000, 0.000000000000000000 ) ) ;
#244 = CC_DESIGN_APPROVAL ( #18, ( #80 ) ) ;
#245 = DIRECTION ( 'NONE',  ( 1.000000000000000000, 0.000000000000000000, -0.000000000000000000 ) ) ;
#246 = LINE ( 'NONE', #185, #152 ) ;
#247 = ORIENTED_EDGE ( 'NONE', *, *, #86, .F. ) ;
#248 = CC_DESIGN_PERSON_AND_ORGANIZATION_ASSIGNMENT ( #163, #232, ( #227 ) ) ;
#249 = DIRECTION ( 'NONE',  ( 1.000000000000000000, 0.000000000000000000, 0.000000000000000000 ) ) ;
#250 = CC_DESIGN_APPROVAL ( #263, ( #227 ) ) ;
#251 = VERTEX_POINT ( 'NONE', #126 ) ;
#252 = DIRECTION ( 'NONE',  ( -0.000000000000000000, -0.000000000000000000, -1.000000000000000000 ) ) ;
#253 = ORIENTED_EDGE ( 'NONE', *, *, #196, .F. ) ;
#254 = LINE ( 'NONE', #23, #122 ) ;
#255 = CIRCLE ( 'NONE', #294, 7.000000000000000000 ) ;
#256 = DIRECTION ( 'NONE',  ( 0.000000000000000000, 0.000000000000000000, 1.000000000000000000 ) ) ;
#257 = CARTESIAN_POINT ( 'NONE',  ( 0.000000000000000000, 0.000000000000000000, 5.000000000000000000 ) ) ;
#258 = AXIS2_PLACEMENT_3D ( 'NONE', #91, #93, #290 ) ;
#259 = PERSON_AND_ORGANIZATION_ROLE ( 'design_owner' ) ;
#260 = CALENDAR_DATE ( 2022, 20, 6 ) ;
#261 = CARTESIAN_POINT ( 'NONE',  ( 0.000000000000000000, 0.000000000000000000, 0.000000000000000000 ) ) ;
#262 = ADVANCED_FACE ( 'NONE', ( #220 ), #276, .T. ) ;
#263 = APPROVAL ( #180, 'NEURÈENÝ' ) ;
#264 = AXIS2_PLACEMENT_3D ( 'NONE', #257, #252, #230 ) ;
#265 = VERTEX_POINT ( 'NONE', #78 ) ;
#266 = CC_DESIGN_PERSON_AND_ORGANIZATION_ASSIGNMENT ( #178, #286, ( #174 ) ) ;
#267 = VECTOR ( 'NONE', #81, 1000.000000000000000 ) ;
#268 = DIRECTION ( 'NONE',  ( -0.000000000000000000, -0.000000000000000000, -1.000000000000000000 ) ) ;
#269 = APPROVAL_PERSON_ORGANIZATION ( #156, #18, #27 ) ;
#270 = CYLINDRICAL_SURFACE ( 'NONE', #58, 4.000000000000000000 ) ;
#271 = DIRECTION ( 'NONE',  ( 0.000000000000000000, 0.000000000000000000, 1.000000000000000000 ) ) ;
#272 = CIRCLE ( 'NONE', #258, 4.000000000000000000 ) ;
#273 = ORIENTED_EDGE ( 'NONE', *, *, #285, .F. ) ;
#274 = DIRECTION ( 'NONE',  ( 0.000000000000000000, 0.000000000000000000, 1.000000000000000000 ) ) ;
#275 = ORIENTED_EDGE ( 'NONE', *, *, #237, .F. ) ;
#276 = CYLINDRICAL_SURFACE ( 'NONE', #84, 7.000000000000000000 ) ;
#277 = ADVANCED_FACE ( 'NONE', ( #129, #280 ), #175, .T. ) ;
#278 = AXIS2_PLACEMENT_3D ( 'NONE', #143, #210, #249 ) ;
#279 = APPLICATION_PROTOCOL_DEFINITION ( 'international standard', 'config_control_design', 1994, #224 ) ;
#280 = FACE_OUTER_BOUND ( 'NONE', #209, .T. ) ;
#281 = APPROVAL ( #89, 'NEURÈENÝ' ) ;
#282 = MECHANICAL_CONTEXT ( 'NONE', #224, 'mechanical' ) ;
#283 = DATE_AND_TIME ( #132, #214 ) ;
#284 = DIRECTION ( 'NONE',  ( 0.000000000000000000, 0.000000000000000000, 1.000000000000000000 ) ) ;
#285 = EDGE_CURVE ( 'NONE', #298, #265, #221, .T. ) ;
#286 = PERSON_AND_ORGANIZATION_ROLE ( 'creator' ) ;
#287 = PERSON_AND_ORGANIZATION_ROLE ( 'design_supplier' ) ;
#288 = AXIS2_PLACEMENT_3D ( 'NONE', #35, #9, #189 ) ;
#289 = ORIENTED_EDGE ( 'NONE', *, *, #97, .F. ) ;
#290 = DIRECTION ( 'NONE',  ( 1.000000000000000000, 0.000000000000000000, 0.000000000000000000 ) ) ;
#291 = ORIENTED_EDGE ( 'NONE', *, *, #285, .T. ) ;
#292 = AXIS2_PLACEMENT_3D ( 'NONE', #115, #208, #7 ) ;
#293 = CARTESIAN_POINT ( 'NONE',  ( 7.000000000000000000, 8.572527594031473190E-16, 5.000000000000000000 ) ) ;
#294 = AXIS2_PLACEMENT_3D ( 'NONE', #216, #74, #213 ) ;
#295 = DIRECTION ( 'NONE',  ( -1.000000000000000000, 1.224646799147353454E-16, 0.000000000000000000 ) ) ;
#296 = FACE_OUTER_BOUND ( 'NONE', #171, .T. ) ;
#297 = CC_DESIGN_PERSON_AND_ORGANIZATION_ASSIGNMENT ( #202, #259, ( #201 ) ) ;
#298 = VERTEX_POINT ( 'NONE', #151 ) ;
#299 = PLANE ( 'NONE',  #135 ) ;
#300 = ORIENTED_EDGE ( 'NONE', *, *, #142, .F. ) ;
#301 =( NAMED_UNIT ( * ) PLANE_ANGLE_UNIT ( ) SI_UNIT ( $, .RADIAN. ) );
#302 = EDGE_CURVE ( 'NONE', #150, #188, #19, .T. ) ;
#303 = LOCAL_TIME ( 11, 48, 15.00000000000000000, #25 ) ;
#304 =( NAMED_UNIT ( * ) SI_UNIT ( $, .STERADIAN. ) SOLID_ANGLE_UNIT ( ) );
#305 = CARTESIAN_POINT ( 'NONE',  ( 0.000000000000000000, 0.000000000000000000, 5.000000000000000000 ) ) ;
#306 = FACE_OUTER_BOUND ( 'NONE', #69, .T. ) ;
#307 = CC_DESIGN_DATE_AND_TIME_ASSIGNMENT ( #83, #236, ( #80 ) ) ;
ENDSEC;
END-ISO-10303-21;
