ISO-10303-21;
HEADER;
FILE_DESCRIPTION (( 'STEP AP203' ),
    '1' );
FILE_NAME ('aa3d.STEP',
    '2022-06-20T10:18:00',
    ( '' ),
    ( '' ),
    'SwSTEP 2.0',
    'SolidWorks 2019',
    '' );
FILE_SCHEMA (( 'CONFIG_CONTROL_DESIGN' ));
ENDSEC;

DATA;
#1 = CARTESIAN_POINT ( 'NONE',  ( -1.250000000000000000, 0.000000000000000000, 162.0000000000000000 ) ) ;
#2 = ORIENTED_EDGE ( 'NONE', *, *, #171, .T. ) ;
#3 = EDGE_CURVE ( 'NONE', #183, #63, #261, .T. ) ;
#4 = CARTESIAN_POINT ( 'NONE',  ( -2.500000000000000000, 0.000000000000000000, 2.000000000000000000 ) ) ;
#5 = ORIENTED_EDGE ( 'NONE', *, *, #122, .F. ) ;
#6 = APPLICATION_CONTEXT ( 'configuration controlled 3d designs of mechanical parts and assemblies' ) ;
#7 = CYLINDRICAL_SURFACE ( 'NONE', #142, 1.250000000000000000 ) ;
#8 = EDGE_CURVE ( 'NONE', #50, #12, #223, .T. ) ;
#9 = VECTOR ( 'NONE', #268, 1000.000000000000000 ) ;
#10 = AXIS2_PLACEMENT_3D ( 'NONE', #305, #64, #209 ) ;
#11 = DIRECTION ( 'NONE',  ( -0.000000000000000000, -0.000000000000000000, -1.000000000000000000 ) ) ;
#12 = VERTEX_POINT ( 'NONE', #166 ) ;
#13 = FACE_OUTER_BOUND ( 'NONE', #100, .T. ) ;
#14 = EDGE_LOOP ( 'NONE', ( #120, #40, #17, #179 ) ) ;
#15 = CIRCLE ( 'NONE', #57, 2.500000000000000000 ) ;
#16 = PLANE ( 'NONE',  #197 ) ;
#17 = ORIENTED_EDGE ( 'NONE', *, *, #98, .T. ) ;
#18 = DATE_TIME_ROLE ( 'classification_date' ) ;
#19 = CIRCLE ( 'NONE', #102, 0.2000000000000000944 ) ;
#20 = APPROVAL_STATUS ( 'not_yet_approved' ) ;
#21 = EDGE_CURVE ( 'NONE', #63, #77, #158, .T. ) ;
#22 = CIRCLE ( 'NONE', #164, 1.250000000000000000 ) ;
#23 = COORDINATED_UNIVERSAL_TIME_OFFSET ( 1, 0, .AHEAD. ) ;
#24 = APPLICATION_CONTEXT ( 'configuration controlled 3d designs of mechanical parts and assemblies' ) ;
#25 = FACE_OUTER_BOUND ( 'NONE', #274, .T. ) ;
#26 = CC_DESIGN_PERSON_AND_ORGANIZATION_ASSIGNMENT ( #212, #260, ( #234 ) ) ;
#27 = CALENDAR_DATE ( 2022, 20, 6 ) ;
#28 = DIRECTION ( 'NONE',  ( 0.000000000000000000, 0.000000000000000000, -1.000000000000000000 ) ) ;
#29 = AXIS2_PLACEMENT_3D ( 'NONE', #114, #213, #69 ) ;
#30 = PERSON_AND_ORGANIZATION ( #59, #88 ) ;
#31 = CARTESIAN_POINT ( 'NONE',  ( 0.000000000000000000, 0.000000000000000000, 2.200000000000007283 ) ) ;
#32 = FACE_OUTER_BOUND ( 'NONE', #155, .T. ) ;
#33 = PRODUCT_RELATED_PRODUCT_CATEGORY ( 'detail', '', ( #248 ) ) ;
#34 = CARTESIAN_POINT ( 'NONE',  ( 0.000000000000000000, 0.000000000000000000, 0.000000000000000000 ) ) ;
#35 = DIRECTION ( 'NONE',  ( 1.000000000000000000, 0.000000000000000000, 0.000000000000000000 ) ) ;
#36 = EDGE_CURVE ( 'NONE', #12, #50, #86, .T. ) ;
#37 = DIRECTION ( 'NONE',  ( 1.000000000000000000, 0.000000000000000000, 0.000000000000000000 ) ) ;
#38 = CIRCLE ( 'NONE', #210, 0.2000000000000000944 ) ;
#39 = CARTESIAN_POINT ( 'NONE',  ( 1.250000000000000000, 1.530808498934191571E-16, 162.0000000000000000 ) ) ;
#40 = ORIENTED_EDGE ( 'NONE', *, *, #269, .T. ) ;
#41 = ORIENTED_EDGE ( 'NONE', *, *, #93, .T. ) ;
#42 = CC_DESIGN_SECURITY_CLASSIFICATION ( #267, ( #239 ) ) ;
#43 = DIRECTION ( 'NONE',  ( 1.000000000000000000, 0.000000000000000000, 0.000000000000000000 ) ) ;
#44 = EDGE_LOOP ( 'NONE', ( #131, #229, #133, #272 ) ) ;
#45 = PERSON_AND_ORGANIZATION_ROLE ( 'design_supplier' ) ;
#46 = VECTOR ( 'NONE', #297, 1000.000000000000000 ) ;
#47 = DIRECTION ( 'NONE',  ( 1.000000000000000000, 0.000000000000000000, 0.000000000000000000 ) ) ;
#48 = COORDINATED_UNIVERSAL_TIME_OFFSET ( 1, 0, .AHEAD. ) ;
#49 = DIRECTION ( 'NONE',  ( 1.224646799147353207E-16, 1.000000000000000000, -0.000000000000000000 ) ) ;
#50 = VERTEX_POINT ( 'NONE', #219 ) ;
#51 = EDGE_CURVE ( 'NONE', #77, #178, #38, .T. ) ;
#52 = CARTESIAN_POINT ( 'NONE',  ( 0.000000000000000000, 0.000000000000000000, 0.000000000000000000 ) ) ;
#53 = DIRECTION ( 'NONE',  ( 0.000000000000000000, 0.000000000000000000, 1.000000000000000000 ) ) ;
#54 = CIRCLE ( 'NONE', #109, 2.500000000000000000 ) ;
#55 = DIRECTION ( 'NONE',  ( -0.000000000000000000, -0.000000000000000000, -1.000000000000000000 ) ) ;
#56 = DIRECTION ( 'NONE',  ( 1.000000000000000000, 0.000000000000000000, 0.000000000000000000 ) ) ;
#57 = AXIS2_PLACEMENT_3D ( 'NONE', #151, #130, #225 ) ;
#58 = ORIENTED_EDGE ( 'NONE', *, *, #3, .T. ) ;
#59 = PERSON ( 'NEURÈENÝ', 'NEURÈENÝ', 'NEURÈENÝ', ('NEURÈENÝ'), ('NEURÈENÝ'), ('NEURÈENÝ') ) ;
#60 = DIRECTION ( 'NONE',  ( 0.000000000000000000, 0.000000000000000000, 1.000000000000000000 ) ) ;
#61 = ORIENTED_EDGE ( 'NONE', *, *, #51, .F. ) ;
#62 =( NAMED_UNIT ( * ) PLANE_ANGLE_UNIT ( ) SI_UNIT ( $, .RADIAN. ) );
#63 = VERTEX_POINT ( 'NONE', #167 ) ;
#64 = DIRECTION ( 'NONE',  ( 0.000000000000000000, 0.000000000000000000, 1.000000000000000000 ) ) ;
#65 = APPROVAL_ROLE ( '' ) ;
#66 = PERSON_AND_ORGANIZATION ( #59, #88 ) ;
#67 = DIRECTION ( 'NONE',  ( 1.000000000000000000, 0.000000000000000000, 0.000000000000000000 ) ) ;
#68 = PERSON_AND_ORGANIZATION ( #59, #88 ) ;
#69 = DIRECTION ( 'NONE',  ( -1.000000000000000000, 0.000000000000000000, 0.000000000000000000 ) ) ;
#70 = PERSON_AND_ORGANIZATION ( #59, #88 ) ;
#71 = CARTESIAN_POINT ( 'NONE',  ( 1.450000000000000178, 0.000000000000000000, 2.200000000000007283 ) ) ;
#72 = DIRECTION ( 'NONE',  ( 0.000000000000000000, 0.000000000000000000, 1.000000000000000000 ) ) ;
#73 = DIRECTION ( 'NONE',  ( -1.000000000000000000, 0.000000000000000000, 0.000000000000000000 ) ) ;
#74 = CIRCLE ( 'NONE', #105, 1.450000000000000178 ) ;
#75 = LINE ( 'NONE', #174, #177 ) ;
#76 = CIRCLE ( 'NONE', #119, 1.250000000000000000 ) ;
#77 = VERTEX_POINT ( 'NONE', #217 ) ;
#78 = CC_DESIGN_PERSON_AND_ORGANIZATION_ASSIGNMENT ( #259, #90, ( #239 ) ) ;
#79 = DIRECTION ( 'NONE',  ( 1.000000000000000000, 0.000000000000000000, -0.000000000000000000 ) ) ;
#80 = VERTEX_POINT ( 'NONE', #237 ) ;
#81 = TOROIDAL_SURFACE ( 'NONE', #145, 1.450000000000000178, 0.2000000000000000111 ) ;
#82 = CARTESIAN_POINT ( 'NONE',  ( 0.000000000000000000, 0.000000000000000000, 162.0000000000000000 ) ) ;
#83 = ORIENTED_EDGE ( 'NONE', *, *, #282, .T. ) ;
#84 = PERSON_AND_ORGANIZATION_ROLE ( 'classification_officer' ) ;
#85 = VERTEX_POINT ( 'NONE', #266 ) ;
#86 = CIRCLE ( 'NONE', #169, 2.500000000000000000 ) ;
#87 = APPROVAL_PERSON_ORGANIZATION ( #68, #211, #65 ) ;
#88 = ORGANIZATION ( 'NEURÈENÝ', 'NEURÈENÝ', '' ) ;
#89 = DATE_AND_TIME ( #281, #184 ) ;
#90 = PERSON_AND_ORGANIZATION_ROLE ( 'creator' ) ;
#91 = PLANE ( 'NONE',  #205 ) ;
#92 = DATE_AND_TIME ( #27, #141 ) ;
#93 = EDGE_CURVE ( 'NONE', #80, #178, #74, .T. ) ;
#94 = CYLINDRICAL_SURFACE ( 'NONE', #29, 2.500000000000000000 ) ;
#95 = DIRECTION ( 'NONE',  ( 1.000000000000000000, 0.000000000000000000, 0.000000000000000000 ) ) ;
#96 = FACE_OUTER_BOUND ( 'NONE', #107, .T. ) ;
#97 = DIRECTION ( 'NONE',  ( 0.000000000000000000, 0.000000000000000000, 1.000000000000000000 ) ) ;
#98 = EDGE_CURVE ( 'NONE', #77, #63, #289, .T. ) ;
#99 = DIRECTION ( 'NONE',  ( -1.000000000000000000, 0.000000000000000000, 0.000000000000000000 ) ) ;
#100 = EDGE_LOOP ( 'NONE', ( #249, #5, #58, #175 ) ) ;
#101 = DIRECTION ( 'NONE',  ( -0.000000000000000000, -0.000000000000000000, -1.000000000000000000 ) ) ;
#102 = AXIS2_PLACEMENT_3D ( 'NONE', #264, #49, #117 ) ;
#103 = CARTESIAN_POINT ( 'NONE',  ( -2.500000000000000000, 0.000000000000000000, 2.000000000000000000 ) ) ;
#104 = VERTEX_POINT ( 'NONE', #238 ) ;
#105 = AXIS2_PLACEMENT_3D ( 'NONE', #286, #168, #162 ) ;
#106 =( NAMED_UNIT ( * ) SI_UNIT ( $, .STERADIAN. ) SOLID_ANGLE_UNIT ( ) );
#107 = EDGE_LOOP ( 'NONE', ( #206, #279, #111, #150 ) ) ;
#108 = MANIFOLD_SOLID_BREP ( 'Zaoblit1', #262 ) ;
#109 = AXIS2_PLACEMENT_3D ( 'NONE', #148, #125, #222 ) ;
#110 = DIRECTION ( 'NONE',  ( 0.000000000000000000, 0.000000000000000000, 1.000000000000000000 ) ) ;
#111 = ORIENTED_EDGE ( 'NONE', *, *, #8, .T. ) ;
#112 = LOCAL_TIME ( 12, 18, 0.000000000000000000, #160 ) ;
#113 = DATE_AND_TIME ( #207, #254 ) ;
#114 = CARTESIAN_POINT ( 'NONE',  ( 0.000000000000000000, 0.000000000000000000, 2.000000000000000000 ) ) ;
#115 = CC_DESIGN_DATE_AND_TIME_ASSIGNMENT ( #139, #304, ( #234 ) ) ;
#116 = APPROVAL_DATE_TIME ( #92, #196 ) ;
#117 = DIRECTION ( 'NONE',  ( -1.000000000000000000, 1.224646799147353207E-16, 0.000000000000000000 ) ) ;
#118 = APPROVAL_PERSON_ORGANIZATION ( #70, #165, #192 ) ;
#119 = AXIS2_PLACEMENT_3D ( 'NONE', #221, #110, #35 ) ;
#120 = ORIENTED_EDGE ( 'NONE', *, *, #250, .F. ) ;
#121 = DIRECTION ( 'NONE',  ( 1.000000000000000000, 0.000000000000000000, -0.000000000000000000 ) ) ;
#122 = EDGE_CURVE ( 'NONE', #183, #104, #22, .T. ) ;
#123 = DIRECTION ( 'NONE',  ( 0.000000000000000000, 0.000000000000000000, 1.000000000000000000 ) ) ;
#124 = AXIS2_PLACEMENT_3D ( 'NONE', #140, #193, #67 ) ;
#125 = DIRECTION ( 'NONE',  ( 0.000000000000000000, 0.000000000000000000, 1.000000000000000000 ) ) ;
#126 = ADVANCED_FACE ( 'NONE', ( #146, #32 ), #91, .T. ) ;
#127 = AXIS2_PLACEMENT_3D ( 'NONE', #247, #291, #290 ) ;
#128 = VERTEX_POINT ( 'NONE', #4 ) ;
#129 = ADVANCED_FACE ( 'NONE', ( #96 ), #170, .T. ) ;
#130 = DIRECTION ( 'NONE',  ( 0.000000000000000000, 0.000000000000000000, 1.000000000000000000 ) ) ;
#131 = ORIENTED_EDGE ( 'NONE', *, *, #171, .F. ) ;
#132 = APPLICATION_PROTOCOL_DEFINITION ( 'international standard', 'config_control_design', 1994, #6 ) ;
#133 = ORIENTED_EDGE ( 'NONE', *, *, #51, .T. ) ;
#134 = AXIS2_PLACEMENT_3D ( 'NONE', #275, #60, #43 ) ;
#135 = PERSON_AND_ORGANIZATION ( #59, #88 ) ;
#136 = CC_DESIGN_PERSON_AND_ORGANIZATION_ASSIGNMENT ( #30, #187, ( #248 ) ) ;
#137 = CARTESIAN_POINT ( 'NONE',  ( 0.000000000000000000, 0.000000000000000000, 2.000000000000000000 ) ) ;
#138 = DIRECTION ( 'NONE',  ( 0.000000000000000000, 0.000000000000000000, 1.000000000000000000 ) ) ;
#139 = DATE_AND_TIME ( #214, #112 ) ;
#140 = CARTESIAN_POINT ( 'NONE',  ( 0.000000000000000000, 0.000000000000000000, 2.200000000000007283 ) ) ;
#141 = LOCAL_TIME ( 12, 18, 0.000000000000000000, #48 ) ;
#142 = AXIS2_PLACEMENT_3D ( 'NONE', #82, #11, #99 ) ;
#143 = CARTESIAN_POINT ( 'NONE',  ( 0.000000000000000000, 0.000000000000000000, 162.0000000000000000 ) ) ;
#144 = ADVANCED_FACE ( 'NONE', ( #198 ), #242, .F. ) ;
#145 = AXIS2_PLACEMENT_3D ( 'NONE', #244, #200, #37 ) ;
#146 = FACE_BOUND ( 'NONE', #152, .T. ) ;
#147 = DIRECTION ( 'NONE',  ( 0.000000000000000000, 0.000000000000000000, 1.000000000000000000 ) ) ;
#148 = CARTESIAN_POINT ( 'NONE',  ( 0.000000000000000000, 0.000000000000000000, 2.000000000000000000 ) ) ;
#149 = PRODUCT_DEFINITION_SHAPE ( 'NONE', 'NONE',  #234 ) ;
#150 = ORIENTED_EDGE ( 'NONE', *, *, #202, .F. ) ;
#151 = CARTESIAN_POINT ( 'NONE',  ( 0.000000000000000000, 0.000000000000000000, 2.000000000000000000 ) ) ;
#152 = EDGE_LOOP ( 'NONE', ( #83, #41 ) ) ;
#153 = ORIENTED_EDGE ( 'NONE', *, *, #216, .T. ) ;
#154 = CYLINDRICAL_SURFACE ( 'NONE', #127, 1.250000000000000000 ) ;
#155 = EDGE_LOOP ( 'NONE', ( #153, #253 ) ) ;
#156 = APPROVAL_PERSON_ORGANIZATION ( #233, #196, #188 ) ;
#157 = ADVANCED_FACE ( 'NONE', ( #25 ), #94, .T. ) ;
#158 = CIRCLE ( 'NONE', #124, 1.250000000000000000 ) ;
#159 = MECHANICAL_CONTEXT ( 'NONE', #6, 'mechanical' ) ;
#160 = COORDINATED_UNIVERSAL_TIME_OFFSET ( 1, 0, .AHEAD. ) ;
#161 = SHAPE_DEFINITION_REPRESENTATION ( #149, #185 ) ;
#162 = DIRECTION ( 'NONE',  ( 1.000000000000000000, 0.000000000000000000, 0.000000000000000000 ) ) ;
#163 = APPROVAL_STATUS ( 'not_yet_approved' ) ;
#164 = AXIS2_PLACEMENT_3D ( 'NONE', #143, #240, #47 ) ;
#165 = APPROVAL ( #263, 'NEURÈENÝ' ) ;
#166 = CARTESIAN_POINT ( 'NONE',  ( -2.500000000000000000, 0.000000000000000000, 0.000000000000000000 ) ) ;
#167 = CARTESIAN_POINT ( 'NONE',  ( -1.250000000000000000, 0.000000000000000000, 2.200000000000007283 ) ) ;
#168 = DIRECTION ( 'NONE',  ( -0.000000000000000000, -0.000000000000000000, -1.000000000000000000 ) ) ;
#169 = AXIS2_PLACEMENT_3D ( 'NONE', #52, #53, #95 ) ;
#170 = CYLINDRICAL_SURFACE ( 'NONE', #284, 2.500000000000000000 ) ;
#171 = EDGE_CURVE ( 'NONE', #63, #80, #19, .T. ) ;
#172 = CARTESIAN_POINT ( 'NONE',  ( 0.000000000000000000, 0.000000000000000000, 162.0000000000000000 ) ) ;
#173 = CC_DESIGN_PERSON_AND_ORGANIZATION_ASSIGNMENT ( #66, #84, ( #267 ) ) ;
#174 = CARTESIAN_POINT ( 'NONE',  ( 2.500000000000000000, 3.061616997868383141E-16, 2.000000000000000000 ) ) ;
#175 = ORIENTED_EDGE ( 'NONE', *, *, #21, .T. ) ;
#176 = CC_DESIGN_APPROVAL ( #196, ( #267 ) ) ;
#177 = VECTOR ( 'NONE', #101, 1000.000000000000000 ) ;
#178 = VERTEX_POINT ( 'NONE', #215 ) ;
#179 = ORIENTED_EDGE ( 'NONE', *, *, #3, .F. ) ;
#180 = CIRCLE ( 'NONE', #218, 1.450000000000000178 ) ;
#181 = ORIENTED_EDGE ( 'NONE', *, *, #250, .T. ) ;
#182 = COORDINATED_UNIVERSAL_TIME_OFFSET ( 1, 0, .AHEAD. ) ;
#183 = VERTEX_POINT ( 'NONE', #1 ) ;
#184 = LOCAL_TIME ( 12, 18, 0.000000000000000000, #182 ) ;
#185 = ADVANCED_BREP_SHAPE_REPRESENTATION ( 'aa3d', ( #108, #10 ), #241 ) ;
#186 = CC_DESIGN_APPROVAL ( #211, ( #234 ) ) ;
#187 = PERSON_AND_ORGANIZATION_ROLE ( 'design_owner' ) ;
#188 = APPROVAL_ROLE ( '' ) ;
#189 = ADVANCED_FACE ( 'NONE', ( #271 ), #16, .T. ) ;
#190 = SECURITY_CLASSIFICATION_LEVEL ( 'unclassified' ) ;
#191 = ORIENTED_EDGE ( 'NONE', *, *, #36, .T. ) ;
#192 = APPROVAL_ROLE ( '' ) ;
#193 = DIRECTION ( 'NONE',  ( 0.000000000000000000, 0.000000000000000000, 1.000000000000000000 ) ) ;
#194 = CARTESIAN_POINT ( 'NONE',  ( 0.000000000000000000, 0.000000000000000000, 0.000000000000000000 ) ) ;
#195 = DIRECTION ( 'NONE',  ( 1.000000000000000000, 0.000000000000000000, 0.000000000000000000 ) ) ;
#196 = APPROVAL ( #20, 'NEURÈENÝ' ) ;
#197 = AXIS2_PLACEMENT_3D ( 'NONE', #172, #147, #79 ) ;
#198 = FACE_OUTER_BOUND ( 'NONE', #277, .T. ) ;
#199 = LINE ( 'NONE', #39, #201 ) ;
#200 = DIRECTION ( 'NONE',  ( 0.000000000000000000, 0.000000000000000000, 1.000000000000000000 ) ) ;
#201 = VECTOR ( 'NONE', #55, 1000.000000000000000 ) ;
#202 = EDGE_CURVE ( 'NONE', #128, #12, #252, .T. ) ;
#203 = DIRECTION ( 'NONE',  ( -0.000000000000000000, -0.000000000000000000, -1.000000000000000000 ) ) ;
#204 = ORIENTED_EDGE ( 'NONE', *, *, #282, .F. ) ;
#205 = AXIS2_PLACEMENT_3D ( 'NONE', #137, #138, #121 ) ;
#206 = ORIENTED_EDGE ( 'NONE', *, *, #301, .F. ) ;
#207 = CALENDAR_DATE ( 2022, 20, 6 ) ;
#208 = EDGE_LOOP ( 'NONE', ( #251, #181 ) ) ;
#209 = DIRECTION ( 'NONE',  ( 1.000000000000000000, 0.000000000000000000, 0.000000000000000000 ) ) ;
#210 = AXIS2_PLACEMENT_3D ( 'NONE', #71, #306, #28 ) ;
#211 = APPROVAL ( #163, 'NEURÈENÝ' ) ;
#212 = PERSON_AND_ORGANIZATION ( #59, #88 ) ;
#213 = DIRECTION ( 'NONE',  ( -0.000000000000000000, -0.000000000000000000, -1.000000000000000000 ) ) ;
#214 = CALENDAR_DATE ( 2022, 20, 6 ) ;
#215 = CARTESIAN_POINT ( 'NONE',  ( 1.450000000000000178, 0.000000000000000000, 2.000000000000003553 ) ) ;
#216 = EDGE_CURVE ( 'NONE', #128, #85, #15, .T. ) ;
#217 = CARTESIAN_POINT ( 'NONE',  ( 1.250000000000000000, 1.530808498934191571E-16, 2.200000000000007283 ) ) ;
#218 = AXIS2_PLACEMENT_3D ( 'NONE', #278, #203, #56 ) ;
#219 = CARTESIAN_POINT ( 'NONE',  ( 2.500000000000000000, 3.061616997868383141E-16, 0.000000000000000000 ) ) ;
#220 = DIRECTION ( 'NONE',  ( 1.000000000000000000, 0.000000000000000000, 0.000000000000000000 ) ) ;
#221 = CARTESIAN_POINT ( 'NONE',  ( 0.000000000000000000, 0.000000000000000000, 162.0000000000000000 ) ) ;
#222 = DIRECTION ( 'NONE',  ( 1.000000000000000000, 0.000000000000000000, 0.000000000000000000 ) ) ;
#223 = CIRCLE ( 'NONE', #255, 2.500000000000000000 ) ;
#224 = LOCAL_TIME ( 12, 18, 0.000000000000000000, #299 ) ;
#225 = DIRECTION ( 'NONE',  ( 1.000000000000000000, 0.000000000000000000, 0.000000000000000000 ) ) ;
#226 = ORIENTED_EDGE ( 'NONE', *, *, #36, .F. ) ;
#227 = CC_DESIGN_PERSON_AND_ORGANIZATION_ASSIGNMENT ( #135, #45, ( #239 ) ) ;
#228 = FACE_OUTER_BOUND ( 'NONE', #14, .T. ) ;
#229 = ORIENTED_EDGE ( 'NONE', *, *, #98, .F. ) ;
#230 = FACE_OUTER_BOUND ( 'NONE', #295, .T. ) ;
#231 = ORIENTED_EDGE ( 'NONE', *, *, #21, .F. ) ;
#232 = APPROVAL_DATE_TIME ( #256, #165 ) ;
#233 = PERSON_AND_ORGANIZATION ( #59, #88 ) ;
#234 = PRODUCT_DEFINITION ( 'NEZNÁMÝ', '', #239, #235 ) ;
#235 = DESIGN_CONTEXT ( 'detailed design', #24, 'design' ) ;
#236 = DIRECTION ( 'NONE',  ( 1.000000000000000000, 0.000000000000000000, -0.000000000000000000 ) ) ;
#237 = CARTESIAN_POINT ( 'NONE',  ( -1.450000000000000178, 1.775737858763662409E-16, 2.000000000000003553 ) ) ;
#238 = CARTESIAN_POINT ( 'NONE',  ( 1.250000000000000000, 1.530808498934191571E-16, 162.0000000000000000 ) ) ;
#239 = PRODUCT_DEFINITION_FORMATION_WITH_SPECIFIED_SOURCE ( 'LIBOVOLNÝ', '', #248, .NOT_KNOWN. ) ;
#240 = DIRECTION ( 'NONE',  ( 0.000000000000000000, 0.000000000000000000, 1.000000000000000000 ) ) ;
#241 =( GEOMETRIC_REPRESENTATION_CONTEXT ( 3 ) GLOBAL_UNCERTAINTY_ASSIGNED_CONTEXT ( ( #257 ) ) GLOBAL_UNIT_ASSIGNED_CONTEXT ( ( #292, #62, #106 ) ) REPRESENTATION_CONTEXT ( 'NONE', 'WORKASPACE' ) );
#242 = PLANE ( 'NONE',  #243 ) ;
#243 = AXIS2_PLACEMENT_3D ( 'NONE', #34, #97, #236 ) ;
#244 = CARTESIAN_POINT ( 'NONE',  ( 0.000000000000000000, 0.000000000000000000, 2.200000000000007283 ) ) ;
#245 = TOROIDAL_SURFACE ( 'NONE', #134, 1.450000000000000178, 0.2000000000000000111 ) ;
#246 = ORIENTED_EDGE ( 'NONE', *, *, #202, .T. ) ;
#247 = CARTESIAN_POINT ( 'NONE',  ( 0.000000000000000000, 0.000000000000000000, 162.0000000000000000 ) ) ;
#248 = PRODUCT ( 'aa3d', 'aa3d', '', ( #159 ) ) ;
#249 = ORIENTED_EDGE ( 'NONE', *, *, #269, .F. ) ;
#250 = EDGE_CURVE ( 'NONE', #104, #183, #76, .T. ) ;
#251 = ORIENTED_EDGE ( 'NONE', *, *, #122, .T. ) ;
#252 = LINE ( 'NONE', #103, #46 ) ;
#253 = ORIENTED_EDGE ( 'NONE', *, *, #301, .T. ) ;
#254 = LOCAL_TIME ( 12, 18, 0.000000000000000000, #23 ) ;
#255 = AXIS2_PLACEMENT_3D ( 'NONE', #194, #123, #220 ) ;
#256 = DATE_AND_TIME ( #307, #224 ) ;
#257 = UNCERTAINTY_MEASURE_WITH_UNIT (LENGTH_MEASURE( 1.000000000000000082E-05 ), #292, 'distance_accuracy_value', 'NONE');
#258 = ADVANCED_FACE ( 'NONE', ( #228 ), #7, .T. ) ;
#259 = PERSON_AND_ORGANIZATION ( #59, #88 ) ;
#260 = PERSON_AND_ORGANIZATION_ROLE ( 'creator' ) ;
#261 = LINE ( 'NONE', #285, #9 ) ;
#262 = CLOSED_SHELL ( 'NONE', ( #288, #258, #129, #157, #126, #144, #273, #189, #294 ) ) ;
#263 = APPROVAL_STATUS ( 'not_yet_approved' ) ;
#264 = CARTESIAN_POINT ( 'NONE',  ( -1.450000000000000178, 1.775737858763662163E-16, 2.200000000000007283 ) ) ;
#265 = ORIENTED_EDGE ( 'NONE', *, *, #216, .F. ) ;
#266 = CARTESIAN_POINT ( 'NONE',  ( 2.500000000000000000, 3.061616997868383141E-16, 2.000000000000000000 ) ) ;
#267 = SECURITY_CLASSIFICATION ( '', '', #190 ) ;
#268 = DIRECTION ( 'NONE',  ( -0.000000000000000000, -0.000000000000000000, -1.000000000000000000 ) ) ;
#269 = EDGE_CURVE ( 'NONE', #104, #77, #199, .T. ) ;
#270 = FACE_OUTER_BOUND ( 'NONE', #44, .T. ) ;
#271 = FACE_OUTER_BOUND ( 'NONE', #208, .T. ) ;
#272 = ORIENTED_EDGE ( 'NONE', *, *, #93, .F. ) ;
#273 = ADVANCED_FACE ( 'NONE', ( #13 ), #154, .T. ) ;
#274 = EDGE_LOOP ( 'NONE', ( #300, #265, #246, #191 ) ) ;
#275 = CARTESIAN_POINT ( 'NONE',  ( 0.000000000000000000, 0.000000000000000000, 2.200000000000007283 ) ) ;
#276 = EDGE_CURVE ( 'NONE', #85, #50, #75, .T. ) ;
#277 = EDGE_LOOP ( 'NONE', ( #226, #298 ) ) ;
#278 = CARTESIAN_POINT ( 'NONE',  ( 0.000000000000000000, 0.000000000000000000, 2.000000000000000000 ) ) ;
#279 = ORIENTED_EDGE ( 'NONE', *, *, #276, .T. ) ;
#280 = APPLICATION_PROTOCOL_DEFINITION ( 'international standard', 'config_control_design', 1994, #24 ) ;
#281 = CALENDAR_DATE ( 2022, 20, 6 ) ;
#282 = EDGE_CURVE ( 'NONE', #178, #80, #180, .T. ) ;
#283 = CARTESIAN_POINT ( 'NONE',  ( 0.000000000000000000, 0.000000000000000000, 2.000000000000000000 ) ) ;
#284 = AXIS2_PLACEMENT_3D ( 'NONE', #283, #287, #73 ) ;
#285 = CARTESIAN_POINT ( 'NONE',  ( -1.250000000000000000, 0.000000000000000000, 162.0000000000000000 ) ) ;
#286 = CARTESIAN_POINT ( 'NONE',  ( 0.000000000000000000, 0.000000000000000000, 2.000000000000000000 ) ) ;
#287 = DIRECTION ( 'NONE',  ( -0.000000000000000000, -0.000000000000000000, -1.000000000000000000 ) ) ;
#288 = ADVANCED_FACE ( 'NONE', ( #230 ), #81, .F. ) ;
#289 = CIRCLE ( 'NONE', #296, 1.250000000000000000 ) ;
#290 = DIRECTION ( 'NONE',  ( -1.000000000000000000, 0.000000000000000000, 0.000000000000000000 ) ) ;
#291 = DIRECTION ( 'NONE',  ( -0.000000000000000000, -0.000000000000000000, -1.000000000000000000 ) ) ;
#292 =( LENGTH_UNIT ( ) NAMED_UNIT ( * ) SI_UNIT ( .MILLI., .METRE. ) );
#293 = CC_DESIGN_APPROVAL ( #165, ( #239 ) ) ;
#294 = ADVANCED_FACE ( 'NONE', ( #270 ), #245, .F. ) ;
#295 = EDGE_LOOP ( 'NONE', ( #231, #2, #204, #61 ) ) ;
#296 = AXIS2_PLACEMENT_3D ( 'NONE', #31, #72, #195 ) ;
#297 = DIRECTION ( 'NONE',  ( -0.000000000000000000, -0.000000000000000000, -1.000000000000000000 ) ) ;
#298 = ORIENTED_EDGE ( 'NONE', *, *, #8, .F. ) ;
#299 = COORDINATED_UNIVERSAL_TIME_OFFSET ( 1, 0, .AHEAD. ) ;
#300 = ORIENTED_EDGE ( 'NONE', *, *, #276, .F. ) ;
#301 = EDGE_CURVE ( 'NONE', #85, #128, #54, .T. ) ;
#302 = APPROVAL_DATE_TIME ( #113, #211 ) ;
#303 = CC_DESIGN_DATE_AND_TIME_ASSIGNMENT ( #89, #18, ( #267 ) ) ;
#304 = DATE_TIME_ROLE ( 'creation_date' ) ;
#305 = CARTESIAN_POINT ( 'NONE',  ( 0.000000000000000000, 0.000000000000000000, 0.000000000000000000 ) ) ;
#306 = DIRECTION ( 'NONE',  ( 0.000000000000000000, -1.000000000000000000, 0.000000000000000000 ) ) ;
#307 = CALENDAR_DATE ( 2022, 20, 6 ) ;
ENDSEC;
END-ISO-10303-21;
