ISO-10303-21;
HEADER;
FILE_DESCRIPTION (( 'STEP AP203' ),
    '1' );
FILE_NAME ('0d37.STEP',
    '2022-06-20T09:40:58',
    ( '' ),
    ( '' ),
    'SwSTEP 2.0',
    'SolidWorks 2019',
    '' );
FILE_SCHEMA (( 'CONFIG_CONTROL_DESIGN' ));
ENDSEC;

DATA;
#1 = LINE ( 'NONE', #163, #97 ) ;
#2 = CIRCLE ( 'NONE', #174, 5.200000000000001066 ) ;
#3 = CARTESIAN_POINT ( 'NONE',  ( -8.000000000000000000, 0.000000000000000000, 0.000000000000000000 ) ) ;
#4 = CC_DESIGN_PERSON_AND_ORGANIZATION_ASSIGNMENT ( #289, #111, ( #99 ) ) ;
#5 = DIRECTION ( 'NONE',  ( -1.000000000000000000, 0.000000000000000000, 0.000000000000000000 ) ) ;
#6 = FACE_BOUND ( 'NONE', #91, .T. ) ;
#7 = CIRCLE ( 'NONE', #258, 0.1999999999999996503 ) ;
#8 =( LENGTH_UNIT ( ) NAMED_UNIT ( * ) SI_UNIT ( .MILLI., .METRE. ) );
#9 = CARTESIAN_POINT ( 'NONE',  ( 5.000000000000000888, 6.123233995736767268E-16, 5.199999999999982414 ) ) ;
#10 = CIRCLE ( 'NONE', #139, 5.000000000000000888 ) ;
#11 = DATE_AND_TIME ( #202, #279 ) ;
#12 = ORIENTED_EDGE ( 'NONE', *, *, #117, .T. ) ;
#13 = ORIENTED_EDGE ( 'NONE', *, *, #205, .T. ) ;
#14 = CARTESIAN_POINT ( 'NONE',  ( -5.200000000000001066, 6.368163355566237368E-16, 4.999999999999991118 ) ) ;
#15 = TOROIDAL_SURFACE ( 'NONE', #261, 5.200000000000001066, 0.2000000000000000111 ) ;
#16 = COORDINATED_UNIVERSAL_TIME_OFFSET ( 1, 0, .AHEAD. ) ;
#17 = AXIS2_PLACEMENT_3D ( 'NONE', #113, #270, #206 ) ;
#18 = VERTEX_POINT ( 'NONE', #14 ) ;
#19 = ADVANCED_FACE ( 'NONE', ( #130 ), #223, .F. ) ;
#20 = CYLINDRICAL_SURFACE ( 'NONE', #286, 8.000000000000000000 ) ;
#21 = AXIS2_PLACEMENT_3D ( 'NONE', #170, #216, #26 ) ;
#22 = DIRECTION ( 'NONE',  ( 0.000000000000000000, 0.000000000000000000, -1.000000000000000000 ) ) ;
#23 = DIRECTION ( 'NONE',  ( -0.000000000000000000, -0.000000000000000000, -1.000000000000000000 ) ) ;
#24 = PLANE ( 'NONE',  #54 ) ;
#25 = CARTESIAN_POINT ( 'NONE',  ( 0.000000000000000000, 0.000000000000000000, 5.000000000000000000 ) ) ;
#26 = DIRECTION ( 'NONE',  ( 1.000000000000000000, 0.000000000000000000, 0.000000000000000000 ) ) ;
#27 = FACE_OUTER_BOUND ( 'NONE', #66, .T. ) ;
#28 = APPLICATION_CONTEXT ( 'configuration controlled 3d designs of mechanical parts and assemblies' ) ;
#29 = CARTESIAN_POINT ( 'NONE',  ( 0.000000000000000000, 0.000000000000000000, 5.199999999999982414 ) ) ;
#30 = AXIS2_PLACEMENT_3D ( 'NONE', #80, #195, #31 ) ;
#31 = DIRECTION ( 'NONE',  ( 1.000000000000000000, 0.000000000000000000, 0.000000000000000000 ) ) ;
#32 = ORIENTED_EDGE ( 'NONE', *, *, #287, .T. ) ;
#33 = APPROVAL_ROLE ( '' ) ;
#34 = VERTEX_POINT ( 'NONE', #77 ) ;
#35 = PERSON_AND_ORGANIZATION_ROLE ( 'creator' ) ;
#36 = ORIENTED_EDGE ( 'NONE', *, *, #137, .T. ) ;
#37 = APPLICATION_PROTOCOL_DEFINITION ( 'international standard', 'config_control_design', 1994, #28 ) ;
#38 = ORIENTED_EDGE ( 'NONE', *, *, #185, .T. ) ;
#39 = AXIS2_PLACEMENT_3D ( 'NONE', #280, #49, #138 ) ;
#40 = LOCAL_TIME ( 11, 40, 58.00000000000000000, #201 ) ;
#41 = ORIENTED_EDGE ( 'NONE', *, *, #167, .F. ) ;
#42 = EDGE_CURVE ( 'NONE', #95, #247, #51, .T. ) ;
#43 = PRODUCT_DEFINITION_SHAPE ( 'NONE', 'NONE',  #125 ) ;
#44 = CIRCLE ( 'NONE', #84, 0.1999999999999996503 ) ;
#45 = CARTESIAN_POINT ( 'NONE',  ( -8.000000000000000000, 0.000000000000000000, 5.000000000000000000 ) ) ;
#46 = DIRECTION ( 'NONE',  ( 0.000000000000000000, 0.000000000000000000, 1.000000000000000000 ) ) ;
#47 = TOROIDAL_SURFACE ( 'NONE', #122, 5.200000000000001066, 0.2000000000000000111 ) ;
#48 = LOCAL_TIME ( 11, 40, 58.00000000000000000, #109 ) ;
#49 = DIRECTION ( 'NONE',  ( 0.000000000000000000, 0.000000000000000000, 1.000000000000000000 ) ) ;
#50 = ORIENTED_EDGE ( 'NONE', *, *, #146, .F. ) ;
#51 = CIRCLE ( 'NONE', #192, 8.000000000000000000 ) ;
#52 = DIRECTION ( 'NONE',  ( 1.000000000000000000, 0.000000000000000000, 0.000000000000000000 ) ) ;
#53 = DIRECTION ( 'NONE',  ( 0.000000000000000000, 0.000000000000000000, 1.000000000000000000 ) ) ;
#54 = AXIS2_PLACEMENT_3D ( 'NONE', #140, #53, #237 ) ;
#55 = DIRECTION ( 'NONE',  ( -0.000000000000000000, -0.000000000000000000, -1.000000000000000000 ) ) ;
#56 = EDGE_CURVE ( 'NONE', #203, #291, #1, .T. ) ;
#57 = VECTOR ( 'NONE', #105, 1000.000000000000000 ) ;
#58 = ADVANCED_BREP_SHAPE_REPRESENTATION ( '0d37', ( #69, #89 ), #295 ) ;
#59 =( NAMED_UNIT ( * ) SI_UNIT ( $, .STERADIAN. ) SOLID_ANGLE_UNIT ( ) );
#60 = PERSON_AND_ORGANIZATION ( #75, #145 ) ;
#61 = ORIENTED_EDGE ( 'NONE', *, *, #117, .F. ) ;
#62 = COORDINATED_UNIVERSAL_TIME_OFFSET ( 1, 0, .AHEAD. ) ;
#63 = PRODUCT_RELATED_PRODUCT_CATEGORY ( 'detail', '', ( #99 ) ) ;
#64 = UNCERTAINTY_MEASURE_WITH_UNIT (LENGTH_MEASURE( 1.000000000000000082E-05 ), #8, 'distance_accuracy_value', 'NONE');
#65 = ADVANCED_FACE ( 'NONE', ( #191 ), #159, .T. ) ;
#66 = EDGE_LOOP ( 'NONE', ( #231, #293, #225, #50 ) ) ;
#67 = CALENDAR_DATE ( 2022, 20, 6 ) ;
#68 = APPROVAL_STATUS ( 'not_yet_approved' ) ;
#69 = MANIFOLD_SOLID_BREP ( 'Zaoblit1', #131 ) ;
#70 = DIRECTION ( 'NONE',  ( 0.000000000000000000, 0.000000000000000000, 1.000000000000000000 ) ) ;
#71 = CARTESIAN_POINT ( 'NONE',  ( -8.000000000000000000, 0.000000000000000000, 5.000000000000000000 ) ) ;
#72 = DIRECTION ( 'NONE',  ( 1.000000000000000000, 0.000000000000000000, 0.000000000000000000 ) ) ;
#73 = CC_DESIGN_PERSON_AND_ORGANIZATION_ASSIGNMENT ( #251, #200, ( #125 ) ) ;
#74 = FACE_OUTER_BOUND ( 'NONE', #222, .T. ) ;
#75 = PERSON ( 'NEURÈENÝ', 'NEURÈENÝ', 'NEURÈENÝ', ('NEURÈENÝ'), ('NEURÈENÝ'), ('NEURÈENÝ') ) ;
#76 = AXIS2_PLACEMENT_3D ( 'NONE', #252, #207, #275 ) ;
#77 = CARTESIAN_POINT ( 'NONE',  ( -5.000000000000000888, 0.000000000000000000, 5.199999999999982414 ) ) ;
#78 = CC_DESIGN_DATE_AND_TIME_ASSIGNMENT ( #266, #290, ( #307 ) ) ;
#79 = DIRECTION ( 'NONE',  ( 1.000000000000000000, 0.000000000000000000, -0.000000000000000000 ) ) ;
#80 = CARTESIAN_POINT ( 'NONE',  ( 0.000000000000000000, 0.000000000000000000, 5.199999999999982414 ) ) ;
#81 = CARTESIAN_POINT ( 'NONE',  ( -5.000000000000000888, 0.000000000000000000, 320.0000000000000000 ) ) ;
#82 = VECTOR ( 'NONE', #98, 1000.000000000000000 ) ;
#83 = DIRECTION ( 'NONE',  ( 1.000000000000000000, 0.000000000000000000, 0.000000000000000000 ) ) ;
#84 = AXIS2_PLACEMENT_3D ( 'NONE', #120, #121, #232 ) ;
#85 = EDGE_CURVE ( 'NONE', #95, #227, #304, .T. ) ;
#86 = APPROVAL ( #246, 'NEURÈENÝ' ) ;
#87 = DATE_AND_TIME ( #182, #48 ) ;
#88 = PERSON_AND_ORGANIZATION ( #75, #145 ) ;
#89 = AXIS2_PLACEMENT_3D ( 'NONE', #282, #168, #240 ) ;
#90 = PERSON_AND_ORGANIZATION_ROLE ( 'classification_officer' ) ;
#91 = EDGE_LOOP ( 'NONE', ( #12, #272 ) ) ;
#92 = ORIENTED_EDGE ( 'NONE', *, *, #287, .F. ) ;
#93 = EDGE_LOOP ( 'NONE', ( #183, #112 ) ) ;
#94 = ORIENTED_EDGE ( 'NONE', *, *, #265, .T. ) ;
#95 = VERTEX_POINT ( 'NONE', #45 ) ;
#96 = DIRECTION ( 'NONE',  ( 1.000000000000000000, 0.000000000000000000, 0.000000000000000000 ) ) ;
#97 = VECTOR ( 'NONE', #23, 1000.000000000000000 ) ;
#98 = DIRECTION ( 'NONE',  ( -0.000000000000000000, -0.000000000000000000, -1.000000000000000000 ) ) ;
#99 = PRODUCT ( '0d37', '0d37', '', ( #262 ) ) ;
#100 = DIRECTION ( 'NONE',  ( 0.000000000000000000, -1.000000000000000000, 0.000000000000000000 ) ) ;
#101 = DIRECTION ( 'NONE',  ( 1.000000000000000000, 0.000000000000000000, 0.000000000000000000 ) ) ;
#102 = CIRCLE ( 'NONE', #135, 5.000000000000000888 ) ;
#103 = VECTOR ( 'NONE', #55, 1000.000000000000000 ) ;
#104 = CARTESIAN_POINT ( 'NONE',  ( 0.000000000000000000, 0.000000000000000000, 5.000000000000000000 ) ) ;
#105 = DIRECTION ( 'NONE',  ( -0.000000000000000000, -0.000000000000000000, -1.000000000000000000 ) ) ;
#106 =( NAMED_UNIT ( * ) PLANE_ANGLE_UNIT ( ) SI_UNIT ( $, .RADIAN. ) );
#107 = PERSON_AND_ORGANIZATION_ROLE ( 'design_supplier' ) ;
#108 = EDGE_CURVE ( 'NONE', #291, #249, #7, .T. ) ;
#109 = COORDINATED_UNIVERSAL_TIME_OFFSET ( 1, 0, .AHEAD. ) ;
#110 = VERTEX_POINT ( 'NONE', #136 ) ;
#111 = PERSON_AND_ORGANIZATION_ROLE ( 'design_owner' ) ;
#112 = ORIENTED_EDGE ( 'NONE', *, *, #184, .T. ) ;
#113 = CARTESIAN_POINT ( 'NONE',  ( 0.000000000000000000, 0.000000000000000000, 0.000000000000000000 ) ) ;
#114 = ORIENTED_EDGE ( 'NONE', *, *, #42, .F. ) ;
#115 = EDGE_LOOP ( 'NONE', ( #269, #114, #149, #151 ) ) ;
#116 = AXIS2_PLACEMENT_3D ( 'NONE', #257, #234, #188 ) ;
#117 = EDGE_CURVE ( 'NONE', #249, #18, #297, .T. ) ;
#118 = DIRECTION ( 'NONE',  ( 1.000000000000000000, 0.000000000000000000, 0.000000000000000000 ) ) ;
#119 = DIRECTION ( 'NONE',  ( -0.000000000000000000, -0.000000000000000000, -1.000000000000000000 ) ) ;
#120 = CARTESIAN_POINT ( 'NONE',  ( -5.200000000000001066, 6.368163355566237368E-16, 5.199999999999982414 ) ) ;
#121 = DIRECTION ( 'NONE',  ( 1.224646799147353207E-16, 1.000000000000000000, -0.000000000000000000 ) ) ;
#122 = AXIS2_PLACEMENT_3D ( 'NONE', #29, #242, #143 ) ;
#123 = CC_DESIGN_SECURITY_CLASSIFICATION ( #307, ( #171 ) ) ;
#124 = CARTESIAN_POINT ( 'NONE',  ( 8.000000000000000000, 9.797174393178825657E-16, 5.000000000000000000 ) ) ;
#125 = PRODUCT_DEFINITION ( 'NEZNÁMÝ', '', #171, #267 ) ;
#126 = ADVANCED_FACE ( 'NONE', ( #302 ), #141, .T. ) ;
#127 = CIRCLE ( 'NONE', #21, 8.000000000000000000 ) ;
#128 = LOCAL_TIME ( 11, 40, 58.00000000000000000, #62 ) ;
#129 = ORIENTED_EDGE ( 'NONE', *, *, #137, .F. ) ;
#130 = FACE_OUTER_BOUND ( 'NONE', #198, .T. ) ;
#131 = CLOSED_SHELL ( 'NONE', ( #220, #264, #158, #65, #212, #19, #126, #199, #236 ) ) ;
#132 = EDGE_LOOP ( 'NONE', ( #300, #13 ) ) ;
#133 = APPROVAL_ROLE ( '' ) ;
#134 = CC_DESIGN_APPROVAL ( #194, ( #125 ) ) ;
#135 = AXIS2_PLACEMENT_3D ( 'NONE', #209, #306, #52 ) ;
#136 = CARTESIAN_POINT ( 'NONE',  ( 8.000000000000000000, 9.797174393178825657E-16, 0.000000000000000000 ) ) ;
#137 = EDGE_CURVE ( 'NONE', #34, #291, #102, .T. ) ;
#138 = DIRECTION ( 'NONE',  ( 1.000000000000000000, 0.000000000000000000, 0.000000000000000000 ) ) ;
#139 = AXIS2_PLACEMENT_3D ( 'NONE', #208, #165, #96 ) ;
#140 = CARTESIAN_POINT ( 'NONE',  ( 0.000000000000000000, 0.000000000000000000, 320.0000000000000000 ) ) ;
#141 = CYLINDRICAL_SURFACE ( 'NONE', #116, 5.000000000000000888 ) ;
#142 = CC_DESIGN_APPROVAL ( #86, ( #307 ) ) ;
#143 = DIRECTION ( 'NONE',  ( 1.000000000000000000, 0.000000000000000000, 0.000000000000000000 ) ) ;
#144 = LINE ( 'NONE', #81, #103 ) ;
#145 = ORGANIZATION ( 'NEURÈENÝ', 'NEURÈENÝ', '' ) ;
#146 = EDGE_CURVE ( 'NONE', #18, #249, #2, .T. ) ;
#147 = CARTESIAN_POINT ( 'NONE',  ( 5.200000000000001066, 0.000000000000000000, 4.999999999999991118 ) ) ;
#148 = DATE_AND_TIME ( #196, #283 ) ;
#149 = ORIENTED_EDGE ( 'NONE', *, *, #85, .T. ) ;
#150 = APPROVAL_ROLE ( '' ) ;
#151 = ORIENTED_EDGE ( 'NONE', *, *, #244, .T. ) ;
#152 = AXIS2_PLACEMENT_3D ( 'NONE', #253, #46, #101 ) ;
#153 = PERSON_AND_ORGANIZATION ( #75, #145 ) ;
#154 = EDGE_CURVE ( 'NONE', #34, #18, #44, .T. ) ;
#155 = SHAPE_DEFINITION_REPRESENTATION ( #43, #58 ) ;
#156 = ORIENTED_EDGE ( 'NONE', *, *, #56, .T. ) ;
#157 = APPROVAL_PERSON_ORGANIZATION ( #153, #221, #150 ) ;
#158 = ADVANCED_FACE ( 'NONE', ( #74 ), #20, .T. ) ;
#159 = CYLINDRICAL_SURFACE ( 'NONE', #76, 8.000000000000000000 ) ;
#160 = DIRECTION ( 'NONE',  ( -1.000000000000000000, 0.000000000000000000, 0.000000000000000000 ) ) ;
#161 = DIRECTION ( 'NONE',  ( 1.000000000000000000, 0.000000000000000000, 0.000000000000000000 ) ) ;
#162 = CIRCLE ( 'NONE', #30, 5.000000000000000888 ) ;
#163 = CARTESIAN_POINT ( 'NONE',  ( 5.000000000000000888, 6.123233995736767268E-16, 320.0000000000000000 ) ) ;
#164 = AXIS2_PLACEMENT_3D ( 'NONE', #276, #259, #72 ) ;
#165 = DIRECTION ( 'NONE',  ( 0.000000000000000000, 0.000000000000000000, 1.000000000000000000 ) ) ;
#166 = DIRECTION ( 'NONE',  ( 0.000000000000000000, 0.000000000000000000, 1.000000000000000000 ) ) ;
#167 = EDGE_CURVE ( 'NONE', #177, #203, #10, .T. ) ;
#168 = DIRECTION ( 'NONE',  ( 0.000000000000000000, 0.000000000000000000, 1.000000000000000000 ) ) ;
#169 = DIRECTION ( 'NONE',  ( 0.000000000000000000, 0.000000000000000000, 1.000000000000000000 ) ) ;
#170 = CARTESIAN_POINT ( 'NONE',  ( 0.000000000000000000, 0.000000000000000000, 0.000000000000000000 ) ) ;
#171 = PRODUCT_DEFINITION_FORMATION_WITH_SPECIFIED_SOURCE ( 'LIBOVOLNÝ', '', #99, .NOT_KNOWN. ) ;
#172 = FACE_OUTER_BOUND ( 'NONE', #132, .T. ) ;
#173 = APPROVAL_STATUS ( 'not_yet_approved' ) ;
#174 = AXIS2_PLACEMENT_3D ( 'NONE', #25, #273, #161 ) ;
#175 = DATE_TIME_ROLE ( 'creation_date' ) ;
#176 = ORIENTED_EDGE ( 'NONE', *, *, #184, .F. ) ;
#177 = VERTEX_POINT ( 'NONE', #235 ) ;
#178 = PERSON_AND_ORGANIZATION ( #75, #145 ) ;
#179 = CIRCLE ( 'NONE', #210, 8.000000000000000000 ) ;
#180 = CC_DESIGN_PERSON_AND_ORGANIZATION_ASSIGNMENT ( #178, #107, ( #171 ) ) ;
#181 = EDGE_LOOP ( 'NONE', ( #245, #41, #32, #36 ) ) ;
#182 = CALENDAR_DATE ( 2022, 20, 6 ) ;
#183 = ORIENTED_EDGE ( 'NONE', *, *, #167, .T. ) ;
#184 = EDGE_CURVE ( 'NONE', #203, #177, #254, .T. ) ;
#185 = EDGE_CURVE ( 'NONE', #110, #227, #277, .T. ) ;
#186 = ORIENTED_EDGE ( 'NONE', *, *, #244, .F. ) ;
#187 = AXIS2_PLACEMENT_3D ( 'NONE', #104, #166, #79 ) ;
#188 = DIRECTION ( 'NONE',  ( -1.000000000000000000, 0.000000000000000000, 0.000000000000000000 ) ) ;
#189 = CARTESIAN_POINT ( 'NONE',  ( 5.200000000000001066, 0.000000000000000000, 5.199999999999982414 ) ) ;
#190 = CARTESIAN_POINT ( 'NONE',  ( 0.000000000000000000, 0.000000000000000000, 5.000000000000000000 ) ) ;
#191 = FACE_OUTER_BOUND ( 'NONE', #115, .T. ) ;
#192 = AXIS2_PLACEMENT_3D ( 'NONE', #211, #70, #118 ) ;
#193 = CARTESIAN_POINT ( 'NONE',  ( 0.000000000000000000, 0.000000000000000000, 5.199999999999982414 ) ) ;
#194 = APPROVAL ( #173, 'NEURÈENÝ' ) ;
#195 = DIRECTION ( 'NONE',  ( 0.000000000000000000, 0.000000000000000000, 1.000000000000000000 ) ) ;
#196 = CALENDAR_DATE ( 2022, 20, 6 ) ;
#197 = SECURITY_CLASSIFICATION_LEVEL ( 'unclassified' ) ;
#198 = EDGE_LOOP ( 'NONE', ( #186, #303 ) ) ;
#199 = ADVANCED_FACE ( 'NONE', ( #233 ), #24, .T. ) ;
#200 = PERSON_AND_ORGANIZATION_ROLE ( 'creator' ) ;
#201 = COORDINATED_UNIVERSAL_TIME_OFFSET ( 1, 0, .AHEAD. ) ;
#202 = CALENDAR_DATE ( 2022, 20, 6 ) ;
#203 = VERTEX_POINT ( 'NONE', #305 ) ;
#204 = EDGE_LOOP ( 'NONE', ( #176, #156, #94, #92 ) ) ;
#205 = EDGE_CURVE ( 'NONE', #247, #95, #179, .T. ) ;
#206 = DIRECTION ( 'NONE',  ( 1.000000000000000000, 0.000000000000000000, -0.000000000000000000 ) ) ;
#207 = DIRECTION ( 'NONE',  ( -0.000000000000000000, -0.000000000000000000, -1.000000000000000000 ) ) ;
#208 = CARTESIAN_POINT ( 'NONE',  ( 0.000000000000000000, 0.000000000000000000, 320.0000000000000000 ) ) ;
#209 = CARTESIAN_POINT ( 'NONE',  ( 0.000000000000000000, 0.000000000000000000, 5.199999999999982414 ) ) ;
#210 = AXIS2_PLACEMENT_3D ( 'NONE', #190, #278, #83 ) ;
#211 = CARTESIAN_POINT ( 'NONE',  ( 0.000000000000000000, 0.000000000000000000, 5.000000000000000000 ) ) ;
#212 = ADVANCED_FACE ( 'NONE', ( #6, #172 ), #218, .T. ) ;
#213 = CC_DESIGN_PERSON_AND_ORGANIZATION_ASSIGNMENT ( #88, #90, ( #307 ) ) ;
#214 = CARTESIAN_POINT ( 'NONE',  ( 0.000000000000000000, 0.000000000000000000, 320.0000000000000000 ) ) ;
#215 = APPROVAL_PERSON_ORGANIZATION ( #248, #86, #133 ) ;
#216 = DIRECTION ( 'NONE',  ( 0.000000000000000000, 0.000000000000000000, 1.000000000000000000 ) ) ;
#217 = DIRECTION ( 'NONE',  ( -0.000000000000000000, -0.000000000000000000, -1.000000000000000000 ) ) ;
#218 = PLANE ( 'NONE',  #187 ) ;
#219 = ORIENTED_EDGE ( 'NONE', *, *, #85, .F. ) ;
#220 = ADVANCED_FACE ( 'NONE', ( #284 ), #15, .F. ) ;
#221 = APPROVAL ( #68, 'NEURÈENÝ' ) ;
#222 = EDGE_LOOP ( 'NONE', ( #299, #250, #38, #219 ) ) ;
#223 = PLANE ( 'NONE',  #17 ) ;
#224 = APPROVAL_DATE_TIME ( #11, #221 ) ;
#225 = ORIENTED_EDGE ( 'NONE', *, *, #108, .T. ) ;
#226 = COORDINATED_UNIVERSAL_TIME_OFFSET ( 1, 0, .AHEAD. ) ;
#227 = VERTEX_POINT ( 'NONE', #3 ) ;
#228 = APPLICATION_CONTEXT ( 'configuration controlled 3d designs of mechanical parts and assemblies' ) ;
#229 = PERSON_AND_ORGANIZATION ( #75, #145 ) ;
#230 = EDGE_LOOP ( 'NONE', ( #129, #296, #61, #298 ) ) ;
#231 = ORIENTED_EDGE ( 'NONE', *, *, #154, .F. ) ;
#232 = DIRECTION ( 'NONE',  ( -1.000000000000000000, 1.224646799147353454E-16, 0.000000000000000000 ) ) ;
#233 = FACE_OUTER_BOUND ( 'NONE', #93, .T. ) ;
#234 = DIRECTION ( 'NONE',  ( -0.000000000000000000, -0.000000000000000000, -1.000000000000000000 ) ) ;
#235 = CARTESIAN_POINT ( 'NONE',  ( -5.000000000000000888, 0.000000000000000000, 320.0000000000000000 ) ) ;
#236 = ADVANCED_FACE ( 'NONE', ( #27 ), #47, .F. ) ;
#237 = DIRECTION ( 'NONE',  ( 1.000000000000000000, 0.000000000000000000, -0.000000000000000000 ) ) ;
#238 = CC_DESIGN_DATE_AND_TIME_ASSIGNMENT ( #292, #175, ( #125 ) ) ;
#239 = CYLINDRICAL_SURFACE ( 'NONE', #294, 5.000000000000000888 ) ;
#240 = DIRECTION ( 'NONE',  ( 1.000000000000000000, 0.000000000000000000, 0.000000000000000000 ) ) ;
#241 = DIRECTION ( 'NONE',  ( 1.000000000000000000, 0.000000000000000000, 0.000000000000000000 ) ) ;
#242 = DIRECTION ( 'NONE',  ( 0.000000000000000000, 0.000000000000000000, 1.000000000000000000 ) ) ;
#243 = APPROVAL_DATE_TIME ( #148, #86 ) ;
#244 = EDGE_CURVE ( 'NONE', #227, #110, #127, .T. ) ;
#245 = ORIENTED_EDGE ( 'NONE', *, *, #56, .F. ) ;
#246 = APPROVAL_STATUS ( 'not_yet_approved' ) ;
#247 = VERTEX_POINT ( 'NONE', #285 ) ;
#248 = PERSON_AND_ORGANIZATION ( #75, #145 ) ;
#249 = VERTEX_POINT ( 'NONE', #147 ) ;
#250 = ORIENTED_EDGE ( 'NONE', *, *, #274, .T. ) ;
#251 = PERSON_AND_ORGANIZATION ( #75, #145 ) ;
#252 = CARTESIAN_POINT ( 'NONE',  ( 0.000000000000000000, 0.000000000000000000, 5.000000000000000000 ) ) ;
#253 = CARTESIAN_POINT ( 'NONE',  ( 0.000000000000000000, 0.000000000000000000, 320.0000000000000000 ) ) ;
#254 = CIRCLE ( 'NONE', #152, 5.000000000000000888 ) ;
#255 = CARTESIAN_POINT ( 'NONE',  ( 0.000000000000000000, 0.000000000000000000, 5.000000000000000000 ) ) ;
#256 = CC_DESIGN_APPROVAL ( #221, ( #171 ) ) ;
#257 = CARTESIAN_POINT ( 'NONE',  ( 0.000000000000000000, 0.000000000000000000, 320.0000000000000000 ) ) ;
#258 = AXIS2_PLACEMENT_3D ( 'NONE', #189, #100, #22 ) ;
#259 = DIRECTION ( 'NONE',  ( -0.000000000000000000, -0.000000000000000000, -1.000000000000000000 ) ) ;
#260 = APPLICATION_PROTOCOL_DEFINITION ( 'international standard', 'config_control_design', 1994, #228 ) ;
#261 = AXIS2_PLACEMENT_3D ( 'NONE', #193, #169, #241 ) ;
#262 = MECHANICAL_CONTEXT ( 'NONE', #228, 'mechanical' ) ;
#263 = FACE_OUTER_BOUND ( 'NONE', #204, .T. ) ;
#264 = ADVANCED_FACE ( 'NONE', ( #263 ), #239, .T. ) ;
#265 = EDGE_CURVE ( 'NONE', #291, #34, #162, .T. ) ;
#266 = DATE_AND_TIME ( #268, #40 ) ;
#267 = DESIGN_CONTEXT ( 'detailed design', #28, 'design' ) ;
#268 = CALENDAR_DATE ( 2022, 20, 6 ) ;
#269 = ORIENTED_EDGE ( 'NONE', *, *, #274, .F. ) ;
#270 = DIRECTION ( 'NONE',  ( 0.000000000000000000, 0.000000000000000000, 1.000000000000000000 ) ) ;
#271 = APPROVAL_DATE_TIME ( #87, #194 ) ;
#272 = ORIENTED_EDGE ( 'NONE', *, *, #146, .T. ) ;
#273 = DIRECTION ( 'NONE',  ( -0.000000000000000000, -0.000000000000000000, -1.000000000000000000 ) ) ;
#274 = EDGE_CURVE ( 'NONE', #247, #110, #281, .T. ) ;
#275 = DIRECTION ( 'NONE',  ( -1.000000000000000000, 0.000000000000000000, 0.000000000000000000 ) ) ;
#276 = CARTESIAN_POINT ( 'NONE',  ( 0.000000000000000000, 0.000000000000000000, 5.000000000000000000 ) ) ;
#277 = CIRCLE ( 'NONE', #39, 8.000000000000000000 ) ;
#278 = DIRECTION ( 'NONE',  ( 0.000000000000000000, 0.000000000000000000, 1.000000000000000000 ) ) ;
#279 = LOCAL_TIME ( 11, 40, 58.00000000000000000, #226 ) ;
#280 = CARTESIAN_POINT ( 'NONE',  ( 0.000000000000000000, 0.000000000000000000, 0.000000000000000000 ) ) ;
#281 = LINE ( 'NONE', #124, #57 ) ;
#282 = CARTESIAN_POINT ( 'NONE',  ( 0.000000000000000000, 0.000000000000000000, 0.000000000000000000 ) ) ;
#283 = LOCAL_TIME ( 11, 40, 58.00000000000000000, #16 ) ;
#284 = FACE_OUTER_BOUND ( 'NONE', #230, .T. ) ;
#285 = CARTESIAN_POINT ( 'NONE',  ( 8.000000000000000000, 9.797174393178825657E-16, 5.000000000000000000 ) ) ;
#286 = AXIS2_PLACEMENT_3D ( 'NONE', #255, #119, #160 ) ;
#287 = EDGE_CURVE ( 'NONE', #177, #34, #144, .T. ) ;
#288 = APPROVAL_PERSON_ORGANIZATION ( #229, #194, #33 ) ;
#289 = PERSON_AND_ORGANIZATION ( #75, #145 ) ;
#290 = DATE_TIME_ROLE ( 'classification_date' ) ;
#291 = VERTEX_POINT ( 'NONE', #9 ) ;
#292 = DATE_AND_TIME ( #67, #128 ) ;
#293 = ORIENTED_EDGE ( 'NONE', *, *, #265, .F. ) ;
#294 = AXIS2_PLACEMENT_3D ( 'NONE', #214, #217, #5 ) ;
#295 =( GEOMETRIC_REPRESENTATION_CONTEXT ( 3 ) GLOBAL_UNCERTAINTY_ASSIGNED_CONTEXT ( ( #64 ) ) GLOBAL_UNIT_ASSIGNED_CONTEXT ( ( #8, #106, #59 ) ) REPRESENTATION_CONTEXT ( 'NONE', 'WORKASPACE' ) );
#296 = ORIENTED_EDGE ( 'NONE', *, *, #154, .T. ) ;
#297 = CIRCLE ( 'NONE', #164, 5.200000000000001066 ) ;
#298 = ORIENTED_EDGE ( 'NONE', *, *, #108, .F. ) ;
#299 = ORIENTED_EDGE ( 'NONE', *, *, #205, .F. ) ;
#300 = ORIENTED_EDGE ( 'NONE', *, *, #42, .T. ) ;
#301 = CC_DESIGN_PERSON_AND_ORGANIZATION_ASSIGNMENT ( #60, #35, ( #171 ) ) ;
#302 = FACE_OUTER_BOUND ( 'NONE', #181, .T. ) ;
#303 = ORIENTED_EDGE ( 'NONE', *, *, #185, .F. ) ;
#304 = LINE ( 'NONE', #71, #82 ) ;
#305 = CARTESIAN_POINT ( 'NONE',  ( 5.000000000000000888, 6.123233995736767268E-16, 320.0000000000000000 ) ) ;
#306 = DIRECTION ( 'NONE',  ( 0.000000000000000000, 0.000000000000000000, 1.000000000000000000 ) ) ;
#307 = SECURITY_CLASSIFICATION ( '', '', #197 ) ;
ENDSEC;
END-ISO-10303-21;
