ISO-10303-21;
HEADER;
FILE_DESCRIPTION (( 'STEP AP203' ),
    '1' );
FILE_NAME ('96a5.STEP',
    '2022-06-20T10:09:50',
    ( '' ),
    ( '' ),
    'SwSTEP 2.0',
    'SolidWorks 2019',
    '' );
FILE_SCHEMA (( 'CONFIG_CONTROL_DESIGN' ));
ENDSEC;

DATA;
#1 = DIRECTION ( 'NONE',  ( 0.000000000000000000, 0.000000000000000000, 1.000000000000000000 ) ) ;
#2 = EDGE_CURVE ( 'NONE', #279, #292, #157, .T. ) ;
#3 = SECURITY_CLASSIFICATION ( '', '', #226 ) ;
#4 = CARTESIAN_POINT ( 'NONE',  ( 0.000000000000000000, 0.000000000000000000, 3.200000000000008171 ) ) ;
#5 = APPLICATION_CONTEXT ( 'configuration controlled 3d designs of mechanical parts and assemblies' ) ;
#6 = CARTESIAN_POINT ( 'NONE',  ( 0.000000000000000000, 0.000000000000000000, 3.000000000000000000 ) ) ;
#7 = AXIS2_PLACEMENT_3D ( 'NONE', #189, #49, #71 ) ;
#8 = DIRECTION ( 'NONE',  ( -0.000000000000000000, -0.000000000000000000, -1.000000000000000000 ) ) ;
#9 = DIRECTION ( 'NONE',  ( -0.000000000000000000, -0.000000000000000000, -1.000000000000000000 ) ) ;
#10 = ADVANCED_FACE ( 'NONE', ( #20 ), #119, .T. ) ;
#11 = APPROVAL_ROLE ( '' ) ;
#12 = PERSON_AND_ORGANIZATION ( #76, #293 ) ;
#13 = ORIENTED_EDGE ( 'NONE', *, *, #238, .F. ) ;
#14 = CC_DESIGN_APPROVAL ( #286, ( #3 ) ) ;
#15 = APPROVAL_PERSON_ORGANIZATION ( #251, #286, #117 ) ;
#16 = ORIENTED_EDGE ( 'NONE', *, *, #28, .T. ) ;
#17 = EDGE_LOOP ( 'NONE', ( #64, #16 ) ) ;
#18 = ORIENTED_EDGE ( 'NONE', *, *, #2, .T. ) ;
#19 = ORIENTED_EDGE ( 'NONE', *, *, #231, .F. ) ;
#20 = FACE_OUTER_BOUND ( 'NONE', #182, .T. ) ;
#21 = APPROVAL_PERSON_ORGANIZATION ( #253, #143, #42 ) ;
#22 = ORIENTED_EDGE ( 'NONE', *, *, #47, .T. ) ;
#23 = CARTESIAN_POINT ( 'NONE',  ( 0.000000000000000000, 0.000000000000000000, 3.000000000000000000 ) ) ;
#24 = CARTESIAN_POINT ( 'NONE',  ( 0.000000000000000000, 0.000000000000000000, 163.0000000000000000 ) ) ;
#25 = CC_DESIGN_PERSON_AND_ORGANIZATION_ASSIGNMENT ( #80, #178, ( #250 ) ) ;
#26 = CC_DESIGN_APPROVAL ( #93, ( #169 ) ) ;
#27 = DIRECTION ( 'NONE',  ( -0.000000000000000000, -0.000000000000000000, -1.000000000000000000 ) ) ;
#28 = EDGE_CURVE ( 'NONE', #111, #142, #232, .T. ) ;
#29 = FACE_OUTER_BOUND ( 'NONE', #207, .T. ) ;
#30 = CARTESIAN_POINT ( 'NONE',  ( 0.000000000000000000, 0.000000000000000000, 3.200000000000008171 ) ) ;
#31 = AXIS2_PLACEMENT_3D ( 'NONE', #185, #217, #50 ) ;
#32 = LINE ( 'NONE', #220, #152 ) ;
#33 = TOROIDAL_SURFACE ( 'NONE', #256, 2.200000000000000178, 0.2000000000000000111 ) ;
#34 = EDGE_CURVE ( 'NONE', #228, #121, #260, .T. ) ;
#35 = PERSON_AND_ORGANIZATION ( #76, #293 ) ;
#36 = ADVANCED_FACE ( 'NONE', ( #72 ), #237, .F. ) ;
#37 = APPROVAL_STATUS ( 'not_yet_approved' ) ;
#38 = PRODUCT_DEFINITION_FORMATION_WITH_SPECIFIED_SOURCE ( 'LIBOVOLNÝ', '', #250, .NOT_KNOWN. ) ;
#39 = CC_DESIGN_SECURITY_CLASSIFICATION ( #3, ( #38 ) ) ;
#40 = DATE_AND_TIME ( #247, #285 ) ;
#41 = APPROVAL_STATUS ( 'not_yet_approved' ) ;
#42 = APPROVAL_ROLE ( '' ) ;
#43 = CIRCLE ( 'NONE', #255, 2.200000000000000178 ) ;
#44 =( GEOMETRIC_REPRESENTATION_CONTEXT ( 3 ) GLOBAL_UNCERTAINTY_ASSIGNED_CONTEXT ( ( #48 ) ) GLOBAL_UNIT_ASSIGNED_CONTEXT ( ( #298, #272, #134 ) ) REPRESENTATION_CONTEXT ( 'NONE', 'WORKASPACE' ) );
#45 = DIRECTION ( 'NONE',  ( 1.000000000000000000, 0.000000000000000000, 0.000000000000000000 ) ) ;
#46 = ORIENTED_EDGE ( 'NONE', *, *, #274, .F. ) ;
#47 = EDGE_CURVE ( 'NONE', #279, #111, #204, .T. ) ;
#48 = UNCERTAINTY_MEASURE_WITH_UNIT (LENGTH_MEASURE( 1.000000000000000082E-05 ), #298, 'distance_accuracy_value', 'NONE');
#49 = DIRECTION ( 'NONE',  ( 0.000000000000000000, 0.000000000000000000, 1.000000000000000000 ) ) ;
#50 = DIRECTION ( 'NONE',  ( 1.000000000000000000, 0.000000000000000000, -0.000000000000000000 ) ) ;
#51 = LINE ( 'NONE', #187, #241 ) ;
#52 = PLANE ( 'NONE',  #261 ) ;
#53 = TOROIDAL_SURFACE ( 'NONE', #229, 2.200000000000000178, 0.2000000000000000111 ) ;
#54 = DIRECTION ( 'NONE',  ( -0.000000000000000000, -0.000000000000000000, -1.000000000000000000 ) ) ;
#55 = DIRECTION ( 'NONE',  ( -1.000000000000000000, 0.000000000000000000, 0.000000000000000000 ) ) ;
#56 = DIRECTION ( 'NONE',  ( 0.000000000000000000, 0.000000000000000000, 1.000000000000000000 ) ) ;
#57 = AXIS2_PLACEMENT_3D ( 'NONE', #23, #234, #284 ) ;
#58 = DIRECTION ( 'NONE',  ( 1.000000000000000000, 0.000000000000000000, -0.000000000000000000 ) ) ;
#59 = CIRCLE ( 'NONE', #269, 4.000000000000000000 ) ;
#60 = CARTESIAN_POINT ( 'NONE',  ( 2.000000000000000000, 2.449293598294706414E-16, 3.200000000000008171 ) ) ;
#61 = APPROVAL_DATE_TIME ( #40, #286 ) ;
#62 = AXIS2_PLACEMENT_3D ( 'NONE', #257, #96, #45 ) ;
#63 = DIRECTION ( 'NONE',  ( 1.000000000000000000, 0.000000000000000000, 0.000000000000000000 ) ) ;
#64 = ORIENTED_EDGE ( 'NONE', *, *, #89, .T. ) ;
#65 = DATE_AND_TIME ( #275, #159 ) ;
#66 = DATE_AND_TIME ( #160, #205 ) ;
#67 = EDGE_CURVE ( 'NONE', #168, #240, #190, .T. ) ;
#68 = CARTESIAN_POINT ( 'NONE',  ( -2.200000000000000178, 2.694222958124177006E-16, 3.200000000000008171 ) ) ;
#69 = ORIENTED_EDGE ( 'NONE', *, *, #79, .F. ) ;
#70 = EDGE_LOOP ( 'NONE', ( #218, #13 ) ) ;
#71 = DIRECTION ( 'NONE',  ( 1.000000000000000000, 0.000000000000000000, -0.000000000000000000 ) ) ;
#72 = FACE_OUTER_BOUND ( 'NONE', #70, .T. ) ;
#73 = CYLINDRICAL_SURFACE ( 'NONE', #81, 2.000000000000000000 ) ;
#74 = DIRECTION ( 'NONE',  ( -0.000000000000000000, -0.000000000000000000, -1.000000000000000000 ) ) ;
#75 = FACE_OUTER_BOUND ( 'NONE', #295, .T. ) ;
#76 = PERSON ( 'NEURÈENÝ', 'NEURÈENÝ', 'NEURÈENÝ', ('NEURÈENÝ'), ('NEURÈENÝ'), ('NEURÈENÝ') ) ;
#77 = CARTESIAN_POINT ( 'NONE',  ( 2.200000000000000178, 0.000000000000000000, 3.000000000000004441 ) ) ;
#78 = CARTESIAN_POINT ( 'NONE',  ( 0.000000000000000000, 0.000000000000000000, 163.0000000000000000 ) ) ;
#79 = EDGE_CURVE ( 'NONE', #292, #142, #137, .T. ) ;
#80 = PERSON_AND_ORGANIZATION ( #76, #293 ) ;
#81 = AXIS2_PLACEMENT_3D ( 'NONE', #24, #54, #101 ) ;
#82 = ORIENTED_EDGE ( 'NONE', *, *, #128, .F. ) ;
#83 = COORDINATED_UNIVERSAL_TIME_OFFSET ( 1, 0, .AHEAD. ) ;
#84 = EDGE_LOOP ( 'NONE', ( #278, #259, #86, #280 ) ) ;
#85 = APPROVAL_DATE_TIME ( #294, #93 ) ;
#86 = ORIENTED_EDGE ( 'NONE', *, *, #238, .T. ) ;
#87 = COORDINATED_UNIVERSAL_TIME_OFFSET ( 1, 0, .AHEAD. ) ;
#88 = ORIENTED_EDGE ( 'NONE', *, *, #231, .T. ) ;
#89 = EDGE_CURVE ( 'NONE', #142, #111, #43, .T. ) ;
#90 = SHAPE_DEFINITION_REPRESENTATION ( #127, #249 ) ;
#91 = DATE_TIME_ROLE ( 'creation_date' ) ;
#92 = ORIENTED_EDGE ( 'NONE', *, *, #67, .F. ) ;
#93 = APPROVAL ( #227, 'NEURÈENÝ' ) ;
#94 = DIRECTION ( 'NONE',  ( 1.000000000000000000, 0.000000000000000000, 0.000000000000000000 ) ) ;
#95 = CC_DESIGN_PERSON_AND_ORGANIZATION_ASSIGNMENT ( #270, #211, ( #169 ) ) ;
#96 = DIRECTION ( 'NONE',  ( 0.000000000000000000, 0.000000000000000000, 1.000000000000000000 ) ) ;
#97 = CARTESIAN_POINT ( 'NONE',  ( 2.200000000000000178, 0.000000000000000000, 3.200000000000008171 ) ) ;
#98 = AXIS2_PLACEMENT_3D ( 'NONE', #305, #216, #94 ) ;
#99 = DIRECTION ( 'NONE',  ( 0.000000000000000000, 0.000000000000000000, 1.000000000000000000 ) ) ;
#100 = CARTESIAN_POINT ( 'NONE',  ( 0.000000000000000000, 0.000000000000000000, 3.200000000000008171 ) ) ;
#101 = DIRECTION ( 'NONE',  ( -1.000000000000000000, 0.000000000000000000, 0.000000000000000000 ) ) ;
#102 = FACE_OUTER_BOUND ( 'NONE', #236, .T. ) ;
#103 = CARTESIAN_POINT ( 'NONE',  ( 0.000000000000000000, 0.000000000000000000, 0.000000000000000000 ) ) ;
#104 = CARTESIAN_POINT ( 'NONE',  ( -4.000000000000000000, 0.000000000000000000, 3.000000000000000000 ) ) ;
#105 = EDGE_CURVE ( 'NONE', #240, #168, #123, .T. ) ;
#106 = EDGE_CURVE ( 'NONE', #168, #163, #51, .T. ) ;
#107 = PERSON_AND_ORGANIZATION_ROLE ( 'classification_officer' ) ;
#108 = APPLICATION_PROTOCOL_DEFINITION ( 'international standard', 'config_control_design', 1994, #194 ) ;
#109 = ORIENTED_EDGE ( 'NONE', *, *, #89, .F. ) ;
#110 = MECHANICAL_CONTEXT ( 'NONE', #194, 'mechanical' ) ;
#111 = VERTEX_POINT ( 'NONE', #129 ) ;
#112 = ADVANCED_FACE ( 'NONE', ( #102 ), #73, .T. ) ;
#113 = PERSON_AND_ORGANIZATION ( #76, #293 ) ;
#114 = EDGE_LOOP ( 'NONE', ( #147, #46, #116, #258 ) ) ;
#115 = AXIS2_PLACEMENT_3D ( 'NONE', #175, #264, #55 ) ;
#116 = ORIENTED_EDGE ( 'NONE', *, *, #79, .T. ) ;
#117 = APPROVAL_ROLE ( '' ) ;
#118 = CARTESIAN_POINT ( 'NONE',  ( 0.000000000000000000, 0.000000000000000000, 3.000000000000000000 ) ) ;
#119 = PLANE ( 'NONE',  #7 ) ;
#120 = DIRECTION ( 'NONE',  ( 1.000000000000000000, 0.000000000000000000, 0.000000000000000000 ) ) ;
#121 = VERTEX_POINT ( 'NONE', #197 ) ;
#122 = ADVANCED_FACE ( 'NONE', ( #267, #224 ), #52, .T. ) ;
#123 = CIRCLE ( 'NONE', #202, 4.000000000000000000 ) ;
#124 = CYLINDRICAL_SURFACE ( 'NONE', #115, 4.000000000000000000 ) ;
#125 = DIRECTION ( 'NONE',  ( 0.000000000000000000, 0.000000000000000000, 1.000000000000000000 ) ) ;
#126 = DIRECTION ( 'NONE',  ( 1.000000000000000000, 0.000000000000000000, 0.000000000000000000 ) ) ;
#127 = PRODUCT_DEFINITION_SHAPE ( 'NONE', 'NONE',  #169 ) ;
#128 = EDGE_CURVE ( 'NONE', #121, #292, #196, .T. ) ;
#129 = CARTESIAN_POINT ( 'NONE',  ( -2.200000000000000178, 2.694222958124177006E-16, 3.000000000000004441 ) ) ;
#130 = VECTOR ( 'NONE', #9, 1000.000000000000000 ) ;
#131 = DIRECTION ( 'NONE',  ( -0.000000000000000000, -0.000000000000000000, -1.000000000000000000 ) ) ;
#132 = ADVANCED_FACE ( 'NONE', ( #170 ), #195, .T. ) ;
#133 = PERSON_AND_ORGANIZATION_ROLE ( 'design_supplier' ) ;
#134 =( NAMED_UNIT ( * ) SI_UNIT ( $, .STERADIAN. ) SOLID_ANGLE_UNIT ( ) );
#135 = EDGE_CURVE ( 'NONE', #240, #301, #150, .T. ) ;
#136 = PERSON_AND_ORGANIZATION ( #76, #293 ) ;
#137 = CIRCLE ( 'NONE', #176, 0.2000000000000000944 ) ;
#138 = CIRCLE ( 'NONE', #307, 2.000000000000000000 ) ;
#139 = CC_DESIGN_DATE_AND_TIME_ASSIGNMENT ( #271, #156, ( #3 ) ) ;
#140 = CC_DESIGN_APPROVAL ( #143, ( #38 ) ) ;
#141 = DIRECTION ( 'NONE',  ( 1.224646799147353207E-16, 1.000000000000000000, -0.000000000000000000 ) ) ;
#142 = VERTEX_POINT ( 'NONE', #77 ) ;
#143 = APPROVAL ( #41, 'NEURÈENÝ' ) ;
#144 = ORIENTED_EDGE ( 'NONE', *, *, #210, .T. ) ;
#145 = LOCAL_TIME ( 12, 9, 50.00000000000000000, #83 ) ;
#146 = DIRECTION ( 'NONE',  ( 0.000000000000000000, -1.000000000000000000, 0.000000000000000000 ) ) ;
#147 = ORIENTED_EDGE ( 'NONE', *, *, #47, .F. ) ;
#148 = DIRECTION ( 'NONE',  ( 1.000000000000000000, 0.000000000000000000, 0.000000000000000000 ) ) ;
#149 = DIRECTION ( 'NONE',  ( 0.000000000000000000, 0.000000000000000000, 1.000000000000000000 ) ) ;
#150 = LINE ( 'NONE', #174, #167 ) ;
#151 = DIRECTION ( 'NONE',  ( 1.000000000000000000, 0.000000000000000000, 0.000000000000000000 ) ) ;
#152 = VECTOR ( 'NONE', #131, 1000.000000000000000 ) ;
#153 = DIRECTION ( 'NONE',  ( -1.000000000000000000, 0.000000000000000000, 0.000000000000000000 ) ) ;
#154 = CARTESIAN_POINT ( 'NONE',  ( 0.000000000000000000, 0.000000000000000000, 0.000000000000000000 ) ) ;
#155 = ORIENTED_EDGE ( 'NONE', *, *, #181, .T. ) ;
#156 = DATE_TIME_ROLE ( 'classification_date' ) ;
#157 = CIRCLE ( 'NONE', #62, 2.000000000000000000 ) ;
#158 = APPLICATION_PROTOCOL_DEFINITION ( 'international standard', 'config_control_design', 1994, #5 ) ;
#159 = LOCAL_TIME ( 12, 9, 50.00000000000000000, #206 ) ;
#160 = CALENDAR_DATE ( 2022, 20, 6 ) ;
#161 = LOCAL_TIME ( 12, 9, 50.00000000000000000, #87 ) ;
#162 = ORIENTED_EDGE ( 'NONE', *, *, #135, .F. ) ;
#163 = VERTEX_POINT ( 'NONE', #219 ) ;
#164 = ORIENTED_EDGE ( 'NONE', *, *, #210, .F. ) ;
#165 = CLOSED_SHELL ( 'NONE', ( #208, #132, #172, #201, #122, #36, #112, #10, #193 ) ) ;
#166 = ORIENTED_EDGE ( 'NONE', *, *, #274, .T. ) ;
#167 = VECTOR ( 'NONE', #27, 1000.000000000000000 ) ;
#168 = VERTEX_POINT ( 'NONE', #104 ) ;
#169 = PRODUCT_DEFINITION ( 'NEZNÁMÝ', '', #38, #276 ) ;
#170 = FACE_OUTER_BOUND ( 'NONE', #233, .T. ) ;
#171 = CARTESIAN_POINT ( 'NONE',  ( 0.000000000000000000, 0.000000000000000000, 0.000000000000000000 ) ) ;
#172 = ADVANCED_FACE ( 'NONE', ( #177 ), #124, .T. ) ;
#173 = CIRCLE ( 'NONE', #192, 4.000000000000000000 ) ;
#174 = CARTESIAN_POINT ( 'NONE',  ( 4.000000000000000000, 4.898587196589412829E-16, 3.000000000000000000 ) ) ;
#175 = CARTESIAN_POINT ( 'NONE',  ( 0.000000000000000000, 0.000000000000000000, 3.000000000000000000 ) ) ;
#176 = AXIS2_PLACEMENT_3D ( 'NONE', #97, #146, #239 ) ;
#177 = FACE_OUTER_BOUND ( 'NONE', #84, .T. ) ;
#178 = PERSON_AND_ORGANIZATION_ROLE ( 'design_owner' ) ;
#179 = ORIENTED_EDGE ( 'NONE', *, *, #67, .T. ) ;
#180 = CALENDAR_DATE ( 2022, 20, 6 ) ;
#181 = EDGE_CURVE ( 'NONE', #163, #301, #173, .T. ) ;
#182 = EDGE_LOOP ( 'NONE', ( #281, #144 ) ) ;
#183 = ORIENTED_EDGE ( 'NONE', *, *, #2, .F. ) ;
#184 = COORDINATED_UNIVERSAL_TIME_OFFSET ( 1, 0, .AHEAD. ) ;
#185 = CARTESIAN_POINT ( 'NONE',  ( 0.000000000000000000, 0.000000000000000000, 0.000000000000000000 ) ) ;
#186 = APPROVAL_PERSON_ORGANIZATION ( #113, #93, #11 ) ;
#187 = CARTESIAN_POINT ( 'NONE',  ( -4.000000000000000000, 0.000000000000000000, 3.000000000000000000 ) ) ;
#188 = DIRECTION ( 'NONE',  ( 0.000000000000000000, 0.000000000000000000, 1.000000000000000000 ) ) ;
#189 = CARTESIAN_POINT ( 'NONE',  ( 0.000000000000000000, 0.000000000000000000, 163.0000000000000000 ) ) ;
#190 = CIRCLE ( 'NONE', #57, 4.000000000000000000 ) ;
#191 = DIRECTION ( 'NONE',  ( 1.000000000000000000, 0.000000000000000000, 0.000000000000000000 ) ) ;
#192 = AXIS2_PLACEMENT_3D ( 'NONE', #103, #1, #200 ) ;
#193 = ADVANCED_FACE ( 'NONE', ( #268 ), #33, .F. ) ;
#194 = APPLICATION_CONTEXT ( 'configuration controlled 3d designs of mechanical parts and assemblies' ) ;
#195 = CYLINDRICAL_SURFACE ( 'NONE', #299, 2.000000000000000000 ) ;
#196 = LINE ( 'NONE', #199, #130 ) ;
#197 = CARTESIAN_POINT ( 'NONE',  ( 2.000000000000000000, 2.449293598294706414E-16, 163.0000000000000000 ) ) ;
#198 = AXIS2_PLACEMENT_3D ( 'NONE', #154, #248, #63 ) ;
#199 = CARTESIAN_POINT ( 'NONE',  ( 2.000000000000000000, 2.449293598294706414E-16, 163.0000000000000000 ) ) ;
#200 = DIRECTION ( 'NONE',  ( 1.000000000000000000, 0.000000000000000000, 0.000000000000000000 ) ) ;
#201 = ADVANCED_FACE ( 'NONE', ( #75 ), #266, .T. ) ;
#202 = AXIS2_PLACEMENT_3D ( 'NONE', #306, #99, #263 ) ;
#203 = EDGE_LOOP ( 'NONE', ( #179, #277 ) ) ;
#204 = CIRCLE ( 'NONE', #282, 0.2000000000000000944 ) ;
#205 = LOCAL_TIME ( 12, 9, 50.00000000000000000, #184 ) ;
#206 = COORDINATED_UNIVERSAL_TIME_OFFSET ( 1, 0, .AHEAD. ) ;
#207 = EDGE_LOOP ( 'NONE', ( #183, #22, #109, #69 ) ) ;
#208 = ADVANCED_FACE ( 'NONE', ( #29 ), #53, .F. ) ;
#209 = CARTESIAN_POINT ( 'NONE',  ( 4.000000000000000000, 4.898587196589412829E-16, 0.000000000000000000 ) ) ;
#210 = EDGE_CURVE ( 'NONE', #121, #228, #212, .T. ) ;
#211 = PERSON_AND_ORGANIZATION_ROLE ( 'creator' ) ;
#212 = CIRCLE ( 'NONE', #283, 2.000000000000000000 ) ;
#213 = CC_DESIGN_PERSON_AND_ORGANIZATION_ASSIGNMENT ( #35, #133, ( #38 ) ) ;
#214 = DIRECTION ( 'NONE',  ( -1.000000000000000000, 1.224646799147353207E-16, 0.000000000000000000 ) ) ;
#215 = ORIENTED_EDGE ( 'NONE', *, *, #34, .F. ) ;
#216 = DIRECTION ( 'NONE',  ( -0.000000000000000000, -0.000000000000000000, -1.000000000000000000 ) ) ;
#217 = DIRECTION ( 'NONE',  ( 0.000000000000000000, 0.000000000000000000, 1.000000000000000000 ) ) ;
#218 = ORIENTED_EDGE ( 'NONE', *, *, #181, .F. ) ;
#219 = CARTESIAN_POINT ( 'NONE',  ( -4.000000000000000000, 0.000000000000000000, 0.000000000000000000 ) ) ;
#220 = CARTESIAN_POINT ( 'NONE',  ( -2.000000000000000000, 0.000000000000000000, 163.0000000000000000 ) ) ;
#221 = MANIFOLD_SOLID_BREP ( 'Zaoblit1', #165 ) ;
#222 = DIRECTION ( 'NONE',  ( 0.000000000000000000, 0.000000000000000000, 1.000000000000000000 ) ) ;
#223 = PRODUCT_RELATED_PRODUCT_CATEGORY ( 'detail', '', ( #250 ) ) ;
#224 = FACE_OUTER_BOUND ( 'NONE', #203, .T. ) ;
#225 = DIRECTION ( 'NONE',  ( 0.000000000000000000, 0.000000000000000000, 1.000000000000000000 ) ) ;
#226 = SECURITY_CLASSIFICATION_LEVEL ( 'unclassified' ) ;
#227 = APPROVAL_STATUS ( 'not_yet_approved' ) ;
#228 = VERTEX_POINT ( 'NONE', #245 ) ;
#229 = AXIS2_PLACEMENT_3D ( 'NONE', #30, #56, #126 ) ;
#230 = CALENDAR_DATE ( 2022, 20, 6 ) ;
#231 = EDGE_CURVE ( 'NONE', #228, #279, #32, .T. ) ;
#232 = CIRCLE ( 'NONE', #98, 2.200000000000000178 ) ;
#233 = EDGE_LOOP ( 'NONE', ( #164, #273, #166, #19 ) ) ;
#234 = DIRECTION ( 'NONE',  ( 0.000000000000000000, 0.000000000000000000, 1.000000000000000000 ) ) ;
#235 = CC_DESIGN_PERSON_AND_ORGANIZATION_ASSIGNMENT ( #136, #246, ( #38 ) ) ;
#236 = EDGE_LOOP ( 'NONE', ( #82, #215, #88, #18 ) ) ;
#237 = PLANE ( 'NONE',  #31 ) ;
#238 = EDGE_CURVE ( 'NONE', #301, #163, #59, .T. ) ;
#239 = DIRECTION ( 'NONE',  ( 0.000000000000000000, 0.000000000000000000, -1.000000000000000000 ) ) ;
#240 = VERTEX_POINT ( 'NONE', #290 ) ;
#241 = VECTOR ( 'NONE', #289, 1000.000000000000000 ) ;
#242 = CARTESIAN_POINT ( 'NONE',  ( 0.000000000000000000, 0.000000000000000000, 163.0000000000000000 ) ) ;
#243 = CARTESIAN_POINT ( 'NONE',  ( 0.000000000000000000, 0.000000000000000000, 3.000000000000000000 ) ) ;
#244 = DIRECTION ( 'NONE',  ( -1.000000000000000000, 0.000000000000000000, 0.000000000000000000 ) ) ;
#245 = CARTESIAN_POINT ( 'NONE',  ( -2.000000000000000000, 0.000000000000000000, 163.0000000000000000 ) ) ;
#246 = PERSON_AND_ORGANIZATION_ROLE ( 'creator' ) ;
#247 = CALENDAR_DATE ( 2022, 20, 6 ) ;
#248 = DIRECTION ( 'NONE',  ( 0.000000000000000000, 0.000000000000000000, 1.000000000000000000 ) ) ;
#249 = ADVANCED_BREP_SHAPE_REPRESENTATION ( '96a5', ( #221, #198 ), #44 ) ;
#250 = PRODUCT ( '96a5', '96a5', '', ( #110 ) ) ;
#251 = PERSON_AND_ORGANIZATION ( #76, #293 ) ;
#252 = CC_DESIGN_DATE_AND_TIME_ASSIGNMENT ( #65, #91, ( #169 ) ) ;
#253 = PERSON_AND_ORGANIZATION ( #76, #293 ) ;
#254 = APPROVAL_DATE_TIME ( #66, #143 ) ;
#255 = AXIS2_PLACEMENT_3D ( 'NONE', #118, #303, #191 ) ;
#256 = AXIS2_PLACEMENT_3D ( 'NONE', #100, #265, #148 ) ;
#257 = CARTESIAN_POINT ( 'NONE',  ( 0.000000000000000000, 0.000000000000000000, 3.200000000000008171 ) ) ;
#258 = ORIENTED_EDGE ( 'NONE', *, *, #28, .F. ) ;
#259 = ORIENTED_EDGE ( 'NONE', *, *, #135, .T. ) ;
#260 = CIRCLE ( 'NONE', #297, 2.000000000000000000 ) ;
#261 = AXIS2_PLACEMENT_3D ( 'NONE', #6, #149, #58 ) ;
#262 = ORIENTED_EDGE ( 'NONE', *, *, #106, .T. ) ;
#263 = DIRECTION ( 'NONE',  ( 1.000000000000000000, 0.000000000000000000, 0.000000000000000000 ) ) ;
#264 = DIRECTION ( 'NONE',  ( -0.000000000000000000, -0.000000000000000000, -1.000000000000000000 ) ) ;
#265 = DIRECTION ( 'NONE',  ( 0.000000000000000000, 0.000000000000000000, 1.000000000000000000 ) ) ;
#266 = CYLINDRICAL_SURFACE ( 'NONE', #288, 4.000000000000000000 ) ;
#267 = FACE_BOUND ( 'NONE', #17, .T. ) ;
#268 = FACE_OUTER_BOUND ( 'NONE', #114, .T. ) ;
#269 = AXIS2_PLACEMENT_3D ( 'NONE', #171, #225, #287 ) ;
#270 = PERSON_AND_ORGANIZATION ( #76, #293 ) ;
#271 = DATE_AND_TIME ( #180, #145 ) ;
#272 =( NAMED_UNIT ( * ) PLANE_ANGLE_UNIT ( ) SI_UNIT ( $, .RADIAN. ) );
#273 = ORIENTED_EDGE ( 'NONE', *, *, #128, .T. ) ;
#274 = EDGE_CURVE ( 'NONE', #292, #279, #138, .T. ) ;
#275 = CALENDAR_DATE ( 2022, 20, 6 ) ;
#276 = DESIGN_CONTEXT ( 'detailed design', #5, 'design' ) ;
#277 = ORIENTED_EDGE ( 'NONE', *, *, #105, .T. ) ;
#278 = ORIENTED_EDGE ( 'NONE', *, *, #105, .F. ) ;
#279 = VERTEX_POINT ( 'NONE', #291 ) ;
#280 = ORIENTED_EDGE ( 'NONE', *, *, #106, .F. ) ;
#281 = ORIENTED_EDGE ( 'NONE', *, *, #34, .T. ) ;
#282 = AXIS2_PLACEMENT_3D ( 'NONE', #68, #141, #214 ) ;
#283 = AXIS2_PLACEMENT_3D ( 'NONE', #242, #125, #151 ) ;
#284 = DIRECTION ( 'NONE',  ( 1.000000000000000000, 0.000000000000000000, 0.000000000000000000 ) ) ;
#285 = LOCAL_TIME ( 12, 9, 50.00000000000000000, #302 ) ;
#286 = APPROVAL ( #37, 'NEURÈENÝ' ) ;
#287 = DIRECTION ( 'NONE',  ( 1.000000000000000000, 0.000000000000000000, 0.000000000000000000 ) ) ;
#288 = AXIS2_PLACEMENT_3D ( 'NONE', #243, #8, #244 ) ;
#289 = DIRECTION ( 'NONE',  ( -0.000000000000000000, -0.000000000000000000, -1.000000000000000000 ) ) ;
#290 = CARTESIAN_POINT ( 'NONE',  ( 4.000000000000000000, 4.898587196589412829E-16, 3.000000000000000000 ) ) ;
#291 = CARTESIAN_POINT ( 'NONE',  ( -2.000000000000000000, 0.000000000000000000, 3.200000000000008171 ) ) ;
#292 = VERTEX_POINT ( 'NONE', #60 ) ;
#293 = ORGANIZATION ( 'NEURÈENÝ', 'NEURÈENÝ', '' ) ;
#294 = DATE_AND_TIME ( #230, #161 ) ;
#295 = EDGE_LOOP ( 'NONE', ( #162, #92, #262, #155 ) ) ;
#296 = CC_DESIGN_PERSON_AND_ORGANIZATION_ASSIGNMENT ( #12, #107, ( #3 ) ) ;
#297 = AXIS2_PLACEMENT_3D ( 'NONE', #304, #188, #120 ) ;
#298 =( LENGTH_UNIT ( ) NAMED_UNIT ( * ) SI_UNIT ( .MILLI., .METRE. ) );
#299 = AXIS2_PLACEMENT_3D ( 'NONE', #78, #74, #153 ) ;
#300 = DIRECTION ( 'NONE',  ( 1.000000000000000000, 0.000000000000000000, 0.000000000000000000 ) ) ;
#301 = VERTEX_POINT ( 'NONE', #209 ) ;
#302 = COORDINATED_UNIVERSAL_TIME_OFFSET ( 1, 0, .AHEAD. ) ;
#303 = DIRECTION ( 'NONE',  ( -0.000000000000000000, -0.000000000000000000, -1.000000000000000000 ) ) ;
#304 = CARTESIAN_POINT ( 'NONE',  ( 0.000000000000000000, 0.000000000000000000, 163.0000000000000000 ) ) ;
#305 = CARTESIAN_POINT ( 'NONE',  ( 0.000000000000000000, 0.000000000000000000, 3.000000000000000000 ) ) ;
#306 = CARTESIAN_POINT ( 'NONE',  ( 0.000000000000000000, 0.000000000000000000, 3.000000000000000000 ) ) ;
#307 = AXIS2_PLACEMENT_3D ( 'NONE', #4, #222, #300 ) ;
ENDSEC;
END-ISO-10303-21;
