ISO-10303-21;
HEADER;
FILE_DESCRIPTION (( 'STEP AP203' ),
    '1' );
FILE_NAME ('cd88.STEP',
    '2022-06-20T09:53:45',
    ( '' ),
    ( '' ),
    'SwSTEP 2.0',
    'SolidWorks 2019',
    '' );
FILE_SCHEMA (( 'CONFIG_CONTROL_DESIGN' ));
ENDSEC;

DATA;
#1 = CARTESIAN_POINT ( 'NONE',  ( 6.000000000000000888, 7.347880794884120722E-16, 0.000000000000000000 ) ) ;
#2 = CARTESIAN_POINT ( 'NONE',  ( -6.000000000000000888, 0.000000000000000000, 5.000000000000000000 ) ) ;
#3 = EDGE_CURVE ( 'NONE', #154, #179, #114, .T. ) ;
#4 = CARTESIAN_POINT ( 'NONE',  ( 0.000000000000000000, 0.000000000000000000, 5.000000000000000000 ) ) ;
#5 = CC_DESIGN_PERSON_AND_ORGANIZATION_ASSIGNMENT ( #153, #108, ( #127 ) ) ;
#6 = VECTOR ( 'NONE', #137, 1000.000000000000000 ) ;
#7 =( NAMED_UNIT ( * ) PLANE_ANGLE_UNIT ( ) SI_UNIT ( $, .RADIAN. ) );
#8 = DIRECTION ( 'NONE',  ( 1.000000000000000000, 0.000000000000000000, 0.000000000000000000 ) ) ;
#9 = APPROVAL_PERSON_ORGANIZATION ( #101, #177, #253 ) ;
#10 = ORIENTED_EDGE ( 'NONE', *, *, #174, .F. ) ;
#11 = CLOSED_SHELL ( 'NONE', ( #257, #264, #224, #217, #47, #37, #280, #43, #268 ) ) ;
#12 = SECURITY_CLASSIFICATION_LEVEL ( 'unclassified' ) ;
#13 = EDGE_LOOP ( 'NONE', ( #256, #230, #126, #84 ) ) ;
#14 = PERSON_AND_ORGANIZATION_ROLE ( 'design_owner' ) ;
#15 = AXIS2_PLACEMENT_3D ( 'NONE', #198, #293, #55 ) ;
#16 = ORIENTED_EDGE ( 'NONE', *, *, #144, .T. ) ;
#17 = ORIENTED_EDGE ( 'NONE', *, *, #283, .T. ) ;
#18 = DIRECTION ( 'NONE',  ( 0.000000000000000000, 0.000000000000000000, 1.000000000000000000 ) ) ;
#19 = CC_DESIGN_APPROVAL ( #177, ( #276 ) ) ;
#20 = CARTESIAN_POINT ( 'NONE',  ( -6.000000000000000888, 0.000000000000000000, 5.000000000000000000 ) ) ;
#21 = PERSON ( 'NEURÈENÝ', 'NEURÈENÝ', 'NEURÈENÝ', ('NEURÈENÝ'), ('NEURÈENÝ'), ('NEURÈENÝ') ) ;
#22 = CARTESIAN_POINT ( 'NONE',  ( -3.250000000000000444, 0.000000000000000000, 805.0000000000000000 ) ) ;
#23 = CARTESIAN_POINT ( 'NONE',  ( -3.250000000000000444, 0.000000000000000000, 5.199999999999982414 ) ) ;
#24 = FACE_OUTER_BOUND ( 'NONE', #279, .T. ) ;
#25 = TOROIDAL_SURFACE ( 'NONE', #100, 3.450000000000000178, 0.2000000000000000111 ) ;
#26 = LINE ( 'NONE', #2, #149 ) ;
#27 = DIRECTION ( 'NONE',  ( -0.000000000000000000, -0.000000000000000000, -1.000000000000000000 ) ) ;
#28 = DIRECTION ( 'NONE',  ( -1.000000000000000000, 0.000000000000000000, 0.000000000000000000 ) ) ;
#29 = AXIS2_PLACEMENT_3D ( 'NONE', #150, #97, #145 ) ;
#30 = CIRCLE ( 'NONE', #94, 6.000000000000000888 ) ;
#31 = CARTESIAN_POINT ( 'NONE',  ( 3.450000000000000178, 0.000000000000000000, 5.199999999999982414 ) ) ;
#32 = EDGE_CURVE ( 'NONE', #40, #251, #30, .T. ) ;
#33 = VERTEX_POINT ( 'NONE', #110 ) ;
#34 = CIRCLE ( 'NONE', #68, 0.2000000000000000944 ) ;
#35 = PERSON_AND_ORGANIZATION ( #21, #180 ) ;
#36 = ORIENTED_EDGE ( 'NONE', *, *, #200, .F. ) ;
#37 = ADVANCED_FACE ( 'NONE', ( #24 ), #46, .F. ) ;
#38 = DATE_AND_TIME ( #281, #155 ) ;
#39 = CIRCLE ( 'NONE', #77, 3.250000000000000444 ) ;
#40 = VERTEX_POINT ( 'NONE', #20 ) ;
#41 = CARTESIAN_POINT ( 'NONE',  ( 0.000000000000000000, 0.000000000000000000, 5.199999999999982414 ) ) ;
#42 = DIRECTION ( 'NONE',  ( 0.000000000000000000, 0.000000000000000000, 1.000000000000000000 ) ) ;
#43 = ADVANCED_FACE ( 'NONE', ( #262 ), #304, .T. ) ;
#44 = CARTESIAN_POINT ( 'NONE',  ( 0.000000000000000000, 0.000000000000000000, 0.000000000000000000 ) ) ;
#45 = VECTOR ( 'NONE', #306, 1000.000000000000000 ) ;
#46 = PLANE ( 'NONE',  #265 ) ;
#47 = ADVANCED_FACE ( 'NONE', ( #113, #64 ), #116, .T. ) ;
#48 = DIRECTION ( 'NONE',  ( 1.000000000000000000, 0.000000000000000000, 0.000000000000000000 ) ) ;
#49 = DIRECTION ( 'NONE',  ( 1.000000000000000000, 0.000000000000000000, 0.000000000000000000 ) ) ;
#50 =( LENGTH_UNIT ( ) NAMED_UNIT ( * ) SI_UNIT ( .MILLI., .METRE. ) );
#51 = EDGE_CURVE ( 'NONE', #179, #81, #34, .T. ) ;
#52 = EDGE_CURVE ( 'NONE', #33, #154, #246, .T. ) ;
#53 = ORIENTED_EDGE ( 'NONE', *, *, #140, .F. ) ;
#54 = APPROVAL_PERSON_ORGANIZATION ( #208, #136, #158 ) ;
#55 = DIRECTION ( 'NONE',  ( 1.000000000000000000, 0.000000000000000000, 0.000000000000000000 ) ) ;
#56 = ORIENTED_EDGE ( 'NONE', *, *, #165, .T. ) ;
#57 = DATE_AND_TIME ( #182, #229 ) ;
#58 = VERTEX_POINT ( 'NONE', #65 ) ;
#59 = PERSON_AND_ORGANIZATION ( #21, #180 ) ;
#60 = ORIENTED_EDGE ( 'NONE', *, *, #52, .T. ) ;
#61 = AXIS2_PLACEMENT_3D ( 'NONE', #89, #162, #236 ) ;
#62 = LINE ( 'NONE', #160, #45 ) ;
#63 = DIRECTION ( 'NONE',  ( 1.000000000000000000, 0.000000000000000000, -0.000000000000000000 ) ) ;
#64 = FACE_OUTER_BOUND ( 'NONE', #204, .T. ) ;
#65 = CARTESIAN_POINT ( 'NONE',  ( 3.450000000000000178, 0.000000000000000000, 4.999999999999991118 ) ) ;
#66 = AXIS2_PLACEMENT_3D ( 'NONE', #31, #96, #223 ) ;
#67 = CARTESIAN_POINT ( 'NONE',  ( -6.000000000000000888, 0.000000000000000000, 0.000000000000000000 ) ) ;
#68 = AXIS2_PLACEMENT_3D ( 'NONE', #191, #139, #141 ) ;
#69 = CYLINDRICAL_SURFACE ( 'NONE', #115, 3.250000000000000444 ) ;
#70 = DIRECTION ( 'NONE',  ( -1.000000000000000000, 0.000000000000000000, 0.000000000000000000 ) ) ;
#71 = CIRCLE ( 'NONE', #92, 6.000000000000000888 ) ;
#72 =( NAMED_UNIT ( * ) SI_UNIT ( $, .STERADIAN. ) SOLID_ANGLE_UNIT ( ) );
#73 = PRODUCT_DEFINITION_SHAPE ( 'NONE', 'NONE',  #123 ) ;
#74 = AXIS2_PLACEMENT_3D ( 'NONE', #91, #209, #193 ) ;
#75 = CARTESIAN_POINT ( 'NONE',  ( 3.250000000000000444, 3.980102097228898231E-16, 5.199999999999982414 ) ) ;
#76 = FACE_OUTER_BOUND ( 'NONE', #228, .T. ) ;
#77 = AXIS2_PLACEMENT_3D ( 'NONE', #120, #117, #8 ) ;
#78 = APPROVAL_STATUS ( 'not_yet_approved' ) ;
#79 = APPROVAL_STATUS ( 'not_yet_approved' ) ;
#80 = MECHANICAL_CONTEXT ( 'NONE', #170, 'mechanical' ) ;
#81 = VERTEX_POINT ( 'NONE', #307 ) ;
#82 = CIRCLE ( 'NONE', #159, 3.250000000000000444 ) ;
#83 = DATE_AND_TIME ( #272, #218 ) ;
#84 = ORIENTED_EDGE ( 'NONE', *, *, #3, .F. ) ;
#85 = ADVANCED_BREP_SHAPE_REPRESENTATION ( 'cd88', ( #118, #15 ), #255 ) ;
#86 = ORIENTED_EDGE ( 'NONE', *, *, #105, .F. ) ;
#87 = CARTESIAN_POINT ( 'NONE',  ( 0.000000000000000000, 0.000000000000000000, 0.000000000000000000 ) ) ;
#88 = CC_DESIGN_PERSON_AND_ORGANIZATION_ASSIGNMENT ( #35, #178, ( #276 ) ) ;
#89 = CARTESIAN_POINT ( 'NONE',  ( 0.000000000000000000, 0.000000000000000000, 5.000000000000000000 ) ) ;
#90 = DIRECTION ( 'NONE',  ( 0.000000000000000000, 0.000000000000000000, 1.000000000000000000 ) ) ;
#91 = CARTESIAN_POINT ( 'NONE',  ( 0.000000000000000000, 0.000000000000000000, 5.000000000000000000 ) ) ;
#92 = AXIS2_PLACEMENT_3D ( 'NONE', #258, #237, #190 ) ;
#93 = DIRECTION ( 'NONE',  ( 1.000000000000000000, 0.000000000000000000, 0.000000000000000000 ) ) ;
#94 = AXIS2_PLACEMENT_3D ( 'NONE', #239, #259, #142 ) ;
#95 = EDGE_CURVE ( 'NONE', #58, #81, #211, .T. ) ;
#96 = DIRECTION ( 'NONE',  ( 0.000000000000000000, -1.000000000000000000, 0.000000000000000000 ) ) ;
#97 = DIRECTION ( 'NONE',  ( -0.000000000000000000, -0.000000000000000000, -1.000000000000000000 ) ) ;
#98 = APPROVAL ( #103, 'NEURÈENÝ' ) ;
#99 = DIRECTION ( 'NONE',  ( 0.000000000000000000, 0.000000000000000000, 1.000000000000000000 ) ) ;
#100 = AXIS2_PLACEMENT_3D ( 'NONE', #289, #266, #148 ) ;
#101 = PERSON_AND_ORGANIZATION ( #21, #180 ) ;
#102 = ORIENTED_EDGE ( 'NONE', *, *, #174, .T. ) ;
#103 = APPROVAL_STATUS ( 'not_yet_approved' ) ;
#104 = ORIENTED_EDGE ( 'NONE', *, *, #95, .F. ) ;
#105 = EDGE_CURVE ( 'NONE', #202, #112, #232, .T. ) ;
#106 = APPROVAL_DATE_TIME ( #227, #136 ) ;
#107 = ORIENTED_EDGE ( 'NONE', *, *, #3, .T. ) ;
#108 = PERSON_AND_ORGANIZATION_ROLE ( 'classification_officer' ) ;
#109 = ORIENTED_EDGE ( 'NONE', *, *, #105, .T. ) ;
#110 = CARTESIAN_POINT ( 'NONE',  ( 3.250000000000000444, 3.980102097228898231E-16, 805.0000000000000000 ) ) ;
#111 = AXIS2_PLACEMENT_3D ( 'NONE', #244, #27, #70 ) ;
#112 = VERTEX_POINT ( 'NONE', #1 ) ;
#113 = FACE_BOUND ( 'NONE', #303, .T. ) ;
#114 = LINE ( 'NONE', #22, #6 ) ;
#115 = AXIS2_PLACEMENT_3D ( 'NONE', #270, #216, #171 ) ;
#116 = PLANE ( 'NONE',  #189 ) ;
#117 = DIRECTION ( 'NONE',  ( 0.000000000000000000, 0.000000000000000000, 1.000000000000000000 ) ) ;
#118 = MANIFOLD_SOLID_BREP ( 'Zaoblit1', #11 ) ;
#119 = EDGE_CURVE ( 'NONE', #81, #58, #181, .T. ) ;
#120 = CARTESIAN_POINT ( 'NONE',  ( 0.000000000000000000, 0.000000000000000000, 805.0000000000000000 ) ) ;
#121 = FACE_OUTER_BOUND ( 'NONE', #277, .T. ) ;
#122 = AXIS2_PLACEMENT_3D ( 'NONE', #87, #42, #138 ) ;
#123 = PRODUCT_DEFINITION ( 'NEZNÁMÝ', '', #276, #196 ) ;
#124 = CYLINDRICAL_SURFACE ( 'NONE', #271, 6.000000000000000888 ) ;
#125 = APPROVAL_DATE_TIME ( #83, #177 ) ;
#126 = ORIENTED_EDGE ( 'NONE', *, *, #234, .T. ) ;
#127 = SECURITY_CLASSIFICATION ( '', '', #12 ) ;
#128 = COORDINATED_UNIVERSAL_TIME_OFFSET ( 1, 0, .AHEAD. ) ;
#129 = ORIENTED_EDGE ( 'NONE', *, *, #51, .F. ) ;
#130 = APPROVAL_ROLE ( '' ) ;
#131 = ORIENTED_EDGE ( 'NONE', *, *, #165, .F. ) ;
#132 = CC_DESIGN_APPROVAL ( #98, ( #127 ) ) ;
#133 = AXIS2_PLACEMENT_3D ( 'NONE', #195, #99, #247 ) ;
#134 = DATE_TIME_ROLE ( 'classification_date' ) ;
#135 = ORIENTED_EDGE ( 'NONE', *, *, #234, .F. ) ;
#136 = APPROVAL ( #78, 'NEURÈENÝ' ) ;
#137 = DIRECTION ( 'NONE',  ( -0.000000000000000000, -0.000000000000000000, -1.000000000000000000 ) ) ;
#138 = DIRECTION ( 'NONE',  ( 1.000000000000000000, 0.000000000000000000, 0.000000000000000000 ) ) ;
#139 = DIRECTION ( 'NONE',  ( 1.224646799147353207E-16, 1.000000000000000000, -0.000000000000000000 ) ) ;
#140 = EDGE_CURVE ( 'NONE', #33, #299, #194, .T. ) ;
#141 = DIRECTION ( 'NONE',  ( -1.000000000000000000, 1.224646799147350742E-16, 0.000000000000000000 ) ) ;
#142 = DIRECTION ( 'NONE',  ( 1.000000000000000000, 0.000000000000000000, 0.000000000000000000 ) ) ;
#143 = AXIS2_PLACEMENT_3D ( 'NONE', #167, #169, #49 ) ;
#144 = EDGE_CURVE ( 'NONE', #251, #112, #62, .T. ) ;
#145 = DIRECTION ( 'NONE',  ( -1.000000000000000000, 0.000000000000000000, 0.000000000000000000 ) ) ;
#146 = CYLINDRICAL_SURFACE ( 'NONE', #29, 6.000000000000000888 ) ;
#147 = DIRECTION ( 'NONE',  ( -0.000000000000000000, -0.000000000000000000, -1.000000000000000000 ) ) ;
#148 = DIRECTION ( 'NONE',  ( 1.000000000000000000, 0.000000000000000000, 0.000000000000000000 ) ) ;
#149 = VECTOR ( 'NONE', #222, 1000.000000000000000 ) ;
#150 = CARTESIAN_POINT ( 'NONE',  ( 0.000000000000000000, 0.000000000000000000, 5.000000000000000000 ) ) ;
#151 = AXIS2_PLACEMENT_3D ( 'NONE', #161, #285, #48 ) ;
#152 = ORIENTED_EDGE ( 'NONE', *, *, #200, .T. ) ;
#153 = PERSON_AND_ORGANIZATION ( #21, #180 ) ;
#154 = VERTEX_POINT ( 'NONE', #260 ) ;
#155 = LOCAL_TIME ( 11, 53, 45.00000000000000000, #254 ) ;
#156 = EDGE_LOOP ( 'NONE', ( #129, #135, #183, #186 ) ) ;
#157 = ORIENTED_EDGE ( 'NONE', *, *, #221, .F. ) ;
#158 = APPROVAL_ROLE ( '' ) ;
#159 = AXIS2_PLACEMENT_3D ( 'NONE', #41, #233, #261 ) ;
#160 = CARTESIAN_POINT ( 'NONE',  ( 6.000000000000000888, 7.347880794884120722E-16, 5.000000000000000000 ) ) ;
#161 = CARTESIAN_POINT ( 'NONE',  ( 0.000000000000000000, 0.000000000000000000, 805.0000000000000000 ) ) ;
#162 = DIRECTION ( 'NONE',  ( 0.000000000000000000, 0.000000000000000000, 1.000000000000000000 ) ) ;
#163 = DIRECTION ( 'NONE',  ( -0.000000000000000000, -0.000000000000000000, -1.000000000000000000 ) ) ;
#164 = CARTESIAN_POINT ( 'NONE',  ( 0.000000000000000000, 0.000000000000000000, 805.0000000000000000 ) ) ;
#165 = EDGE_CURVE ( 'NONE', #112, #202, #71, .T. ) ;
#166 = FACE_OUTER_BOUND ( 'NONE', #226, .T. ) ;
#167 = CARTESIAN_POINT ( 'NONE',  ( 0.000000000000000000, 0.000000000000000000, 5.199999999999982414 ) ) ;
#168 = AXIS2_PLACEMENT_3D ( 'NONE', #164, #90, #286 ) ;
#169 = DIRECTION ( 'NONE',  ( 0.000000000000000000, 0.000000000000000000, 1.000000000000000000 ) ) ;
#170 = APPLICATION_CONTEXT ( 'configuration controlled 3d designs of mechanical parts and assemblies' ) ;
#171 = DIRECTION ( 'NONE',  ( -1.000000000000000000, 0.000000000000000000, 0.000000000000000000 ) ) ;
#172 = DATE_AND_TIME ( #298, #243 ) ;
#173 = PRODUCT ( 'cd88', 'cd88', '', ( #80 ) ) ;
#174 = EDGE_CURVE ( 'NONE', #251, #40, #220, .T. ) ;
#175 = PERSON_AND_ORGANIZATION ( #21, #180 ) ;
#176 = ORIENTED_EDGE ( 'NONE', *, *, #283, .F. ) ;
#177 = APPROVAL ( #79, 'NEURÈENÝ' ) ;
#178 = PERSON_AND_ORGANIZATION_ROLE ( 'design_supplier' ) ;
#179 = VERTEX_POINT ( 'NONE', #23 ) ;
#180 = ORGANIZATION ( 'NEURÈENÝ', 'NEURÈENÝ', '' ) ;
#181 = CIRCLE ( 'NONE', #245, 3.450000000000000178 ) ;
#182 = CALENDAR_DATE ( 2022, 20, 6 ) ;
#183 = ORIENTED_EDGE ( 'NONE', *, *, #221, .T. ) ;
#184 = ORIENTED_EDGE ( 'NONE', *, *, #51, .T. ) ;
#185 = APPLICATION_CONTEXT ( 'configuration controlled 3d designs of mechanical parts and assemblies' ) ;
#186 = ORIENTED_EDGE ( 'NONE', *, *, #119, .F. ) ;
#187 = VECTOR ( 'NONE', #163, 1000.000000000000000 ) ;
#188 = DIRECTION ( 'NONE',  ( 1.000000000000000000, 0.000000000000000000, -0.000000000000000000 ) ) ;
#189 = AXIS2_PLACEMENT_3D ( 'NONE', #212, #215, #188 ) ;
#190 = DIRECTION ( 'NONE',  ( 1.000000000000000000, 0.000000000000000000, 0.000000000000000000 ) ) ;
#191 = CARTESIAN_POINT ( 'NONE',  ( -3.450000000000000178, 4.225031457058368824E-16, 5.199999999999982414 ) ) ;
#192 = CIRCLE ( 'NONE', #133, 3.250000000000000444 ) ;
#193 = DIRECTION ( 'NONE',  ( 1.000000000000000000, 0.000000000000000000, 0.000000000000000000 ) ) ;
#194 = LINE ( 'NONE', #287, #187 ) ;
#195 = CARTESIAN_POINT ( 'NONE',  ( 0.000000000000000000, 0.000000000000000000, 5.199999999999982414 ) ) ;
#196 = DESIGN_CONTEXT ( 'detailed design', #185, 'design' ) ;
#197 = CARTESIAN_POINT ( 'NONE',  ( 6.000000000000000888, 7.347880794884120722E-16, 5.000000000000000000 ) ) ;
#198 = CARTESIAN_POINT ( 'NONE',  ( 0.000000000000000000, 0.000000000000000000, 0.000000000000000000 ) ) ;
#199 = PERSON_AND_ORGANIZATION ( #21, #180 ) ;
#200 = EDGE_CURVE ( 'NONE', #179, #299, #82, .T. ) ;
#201 = DATE_TIME_ROLE ( 'creation_date' ) ;
#202 = VERTEX_POINT ( 'NONE', #67 ) ;
#203 = CC_DESIGN_PERSON_AND_ORGANIZATION_ASSIGNMENT ( #199, #296, ( #123 ) ) ;
#204 = EDGE_LOOP ( 'NONE', ( #284, #102 ) ) ;
#205 = COORDINATED_UNIVERSAL_TIME_OFFSET ( 1, 0, .AHEAD. ) ;
#206 = ORIENTED_EDGE ( 'NONE', *, *, #144, .F. ) ;
#207 = CIRCLE ( 'NONE', #66, 0.1999999999999996503 ) ;
#208 = PERSON_AND_ORGANIZATION ( #21, #180 ) ;
#209 = DIRECTION ( 'NONE',  ( -0.000000000000000000, -0.000000000000000000, -1.000000000000000000 ) ) ;
#210 = ORIENTED_EDGE ( 'NONE', *, *, #32, .F. ) ;
#211 = CIRCLE ( 'NONE', #74, 3.450000000000000178 ) ;
#212 = CARTESIAN_POINT ( 'NONE',  ( 0.000000000000000000, 0.000000000000000000, 5.000000000000000000 ) ) ;
#213 = PRODUCT_RELATED_PRODUCT_CATEGORY ( 'detail', '', ( #173 ) ) ;
#214 = ORIENTED_EDGE ( 'NONE', *, *, #252, .T. ) ;
#215 = DIRECTION ( 'NONE',  ( 0.000000000000000000, 0.000000000000000000, 1.000000000000000000 ) ) ;
#216 = DIRECTION ( 'NONE',  ( -0.000000000000000000, -0.000000000000000000, -1.000000000000000000 ) ) ;
#217 = ADVANCED_FACE ( 'NONE', ( #166 ), #146, .T. ) ;
#218 = LOCAL_TIME ( 11, 53, 45.00000000000000000, #249 ) ;
#219 = APPLICATION_PROTOCOL_DEFINITION ( 'international standard', 'config_control_design', 1994, #170 ) ;
#220 = CIRCLE ( 'NONE', #61, 6.000000000000000888 ) ;
#221 = EDGE_CURVE ( 'NONE', #299, #58, #207, .T. ) ;
#222 = DIRECTION ( 'NONE',  ( -0.000000000000000000, -0.000000000000000000, -1.000000000000000000 ) ) ;
#223 = DIRECTION ( 'NONE',  ( 0.000000000000000000, 0.000000000000000000, -1.000000000000000000 ) ) ;
#224 = ADVANCED_FACE ( 'NONE', ( #76 ), #124, .T. ) ;
#225 = SHAPE_DEFINITION_REPRESENTATION ( #73, #85 ) ;
#226 = EDGE_LOOP ( 'NONE', ( #206, #210, #17, #109 ) ) ;
#227 = DATE_AND_TIME ( #273, #294 ) ;
#228 = EDGE_LOOP ( 'NONE', ( #10, #16, #56, #176 ) ) ;
#229 = LOCAL_TIME ( 11, 53, 45.00000000000000000, #205 ) ;
#230 = ORIENTED_EDGE ( 'NONE', *, *, #140, .T. ) ;
#231 = PERSON_AND_ORGANIZATION ( #21, #180 ) ;
#232 = CIRCLE ( 'NONE', #122, 6.000000000000000888 ) ;
#233 = DIRECTION ( 'NONE',  ( 0.000000000000000000, 0.000000000000000000, 1.000000000000000000 ) ) ;
#234 = EDGE_CURVE ( 'NONE', #299, #179, #192, .T. ) ;
#235 = DIRECTION ( 'NONE',  ( -0.000000000000000000, -0.000000000000000000, -1.000000000000000000 ) ) ;
#236 = DIRECTION ( 'NONE',  ( 1.000000000000000000, 0.000000000000000000, 0.000000000000000000 ) ) ;
#237 = DIRECTION ( 'NONE',  ( 0.000000000000000000, 0.000000000000000000, 1.000000000000000000 ) ) ;
#238 = CC_DESIGN_PERSON_AND_ORGANIZATION_ASSIGNMENT ( #59, #14, ( #173 ) ) ;
#239 = CARTESIAN_POINT ( 'NONE',  ( 0.000000000000000000, 0.000000000000000000, 5.000000000000000000 ) ) ;
#240 = TOROIDAL_SURFACE ( 'NONE', #143, 3.450000000000000178, 0.2000000000000000111 ) ;
#241 = FACE_OUTER_BOUND ( 'NONE', #301, .T. ) ;
#242 = FACE_OUTER_BOUND ( 'NONE', #13, .T. ) ;
#243 = LOCAL_TIME ( 11, 53, 45.00000000000000000, #295 ) ;
#244 = CARTESIAN_POINT ( 'NONE',  ( 0.000000000000000000, 0.000000000000000000, 805.0000000000000000 ) ) ;
#245 = AXIS2_PLACEMENT_3D ( 'NONE', #305, #235, #93 ) ;
#246 = CIRCLE ( 'NONE', #151, 3.250000000000000444 ) ;
#247 = DIRECTION ( 'NONE',  ( 1.000000000000000000, 0.000000000000000000, 0.000000000000000000 ) ) ;
#248 = EDGE_LOOP ( 'NONE', ( #214, #60 ) ) ;
#249 = COORDINATED_UNIVERSAL_TIME_OFFSET ( 1, 0, .AHEAD. ) ;
#250 = CC_DESIGN_SECURITY_CLASSIFICATION ( #127, ( #276 ) ) ;
#251 = VERTEX_POINT ( 'NONE', #197 ) ;
#252 = EDGE_CURVE ( 'NONE', #154, #33, #39, .T. ) ;
#253 = APPROVAL_ROLE ( '' ) ;
#254 = COORDINATED_UNIVERSAL_TIME_OFFSET ( 1, 0, .AHEAD. ) ;
#255 =( GEOMETRIC_REPRESENTATION_CONTEXT ( 3 ) GLOBAL_UNCERTAINTY_ASSIGNED_CONTEXT ( ( #302 ) ) GLOBAL_UNIT_ASSIGNED_CONTEXT ( ( #50, #7, #72 ) ) REPRESENTATION_CONTEXT ( 'NONE', 'WORKASPACE' ) );
#256 = ORIENTED_EDGE ( 'NONE', *, *, #52, .F. ) ;
#257 = ADVANCED_FACE ( 'NONE', ( #121 ), #25, .F. ) ;
#258 = CARTESIAN_POINT ( 'NONE',  ( 0.000000000000000000, 0.000000000000000000, 0.000000000000000000 ) ) ;
#259 = DIRECTION ( 'NONE',  ( 0.000000000000000000, 0.000000000000000000, 1.000000000000000000 ) ) ;
#260 = CARTESIAN_POINT ( 'NONE',  ( -3.250000000000000444, 0.000000000000000000, 805.0000000000000000 ) ) ;
#261 = DIRECTION ( 'NONE',  ( 1.000000000000000000, 0.000000000000000000, 0.000000000000000000 ) ) ;
#262 = FACE_OUTER_BOUND ( 'NONE', #248, .T. ) ;
#263 = FACE_OUTER_BOUND ( 'NONE', #156, .T. ) ;
#264 = ADVANCED_FACE ( 'NONE', ( #242 ), #69, .T. ) ;
#265 = AXIS2_PLACEMENT_3D ( 'NONE', #44, #18, #63 ) ;
#266 = DIRECTION ( 'NONE',  ( 0.000000000000000000, 0.000000000000000000, 1.000000000000000000 ) ) ;
#267 = CC_DESIGN_DATE_AND_TIME_ASSIGNMENT ( #57, #134, ( #127 ) ) ;
#268 = ADVANCED_FACE ( 'NONE', ( #263 ), #240, .F. ) ;
#269 = APPROVAL_PERSON_ORGANIZATION ( #231, #98, #130 ) ;
#270 = CARTESIAN_POINT ( 'NONE',  ( 0.000000000000000000, 0.000000000000000000, 805.0000000000000000 ) ) ;
#271 = AXIS2_PLACEMENT_3D ( 'NONE', #4, #147, #28 ) ;
#272 = CALENDAR_DATE ( 2022, 20, 6 ) ;
#273 = CALENDAR_DATE ( 2022, 20, 6 ) ;
#274 = ORIENTED_EDGE ( 'NONE', *, *, #95, .T. ) ;
#275 = APPROVAL_DATE_TIME ( #172, #98 ) ;
#276 = PRODUCT_DEFINITION_FORMATION_WITH_SPECIFIED_SOURCE ( 'LIBOVOLNÝ', '', #173, .NOT_KNOWN. ) ;
#277 = EDGE_LOOP ( 'NONE', ( #36, #184, #104, #157 ) ) ;
#278 = PERSON_AND_ORGANIZATION_ROLE ( 'creator' ) ;
#279 = EDGE_LOOP ( 'NONE', ( #86, #131 ) ) ;
#280 = ADVANCED_FACE ( 'NONE', ( #241 ), #292, .T. ) ;
#281 = CALENDAR_DATE ( 2022, 20, 6 ) ;
#282 = ORIENTED_EDGE ( 'NONE', *, *, #119, .T. ) ;
#283 = EDGE_CURVE ( 'NONE', #40, #202, #26, .T. ) ;
#284 = ORIENTED_EDGE ( 'NONE', *, *, #32, .T. ) ;
#285 = DIRECTION ( 'NONE',  ( 0.000000000000000000, 0.000000000000000000, 1.000000000000000000 ) ) ;
#286 = DIRECTION ( 'NONE',  ( 1.000000000000000000, 0.000000000000000000, -0.000000000000000000 ) ) ;
#287 = CARTESIAN_POINT ( 'NONE',  ( 3.250000000000000444, 3.980102097228898231E-16, 805.0000000000000000 ) ) ;
#288 = CC_DESIGN_PERSON_AND_ORGANIZATION_ASSIGNMENT ( #175, #278, ( #276 ) ) ;
#289 = CARTESIAN_POINT ( 'NONE',  ( 0.000000000000000000, 0.000000000000000000, 5.199999999999982414 ) ) ;
#290 = CC_DESIGN_APPROVAL ( #136, ( #123 ) ) ;
#291 = CC_DESIGN_DATE_AND_TIME_ASSIGNMENT ( #38, #201, ( #123 ) ) ;
#292 = CYLINDRICAL_SURFACE ( 'NONE', #111, 3.250000000000000444 ) ;
#293 = DIRECTION ( 'NONE',  ( 0.000000000000000000, 0.000000000000000000, 1.000000000000000000 ) ) ;
#294 = LOCAL_TIME ( 11, 53, 45.00000000000000000, #128 ) ;
#295 = COORDINATED_UNIVERSAL_TIME_OFFSET ( 1, 0, .AHEAD. ) ;
#296 = PERSON_AND_ORGANIZATION_ROLE ( 'creator' ) ;
#297 = ORIENTED_EDGE ( 'NONE', *, *, #252, .F. ) ;
#298 = CALENDAR_DATE ( 2022, 20, 6 ) ;
#299 = VERTEX_POINT ( 'NONE', #75 ) ;
#300 = APPLICATION_PROTOCOL_DEFINITION ( 'international standard', 'config_control_design', 1994, #185 ) ;
#301 = EDGE_LOOP ( 'NONE', ( #53, #297, #107, #152 ) ) ;
#302 = UNCERTAINTY_MEASURE_WITH_UNIT (LENGTH_MEASURE( 1.000000000000000082E-05 ), #50, 'distance_accuracy_value', 'NONE');
#303 = EDGE_LOOP ( 'NONE', ( #274, #282 ) ) ;
#304 = PLANE ( 'NONE',  #168 ) ;
#305 = CARTESIAN_POINT ( 'NONE',  ( 0.000000000000000000, 0.000000000000000000, 5.000000000000000000 ) ) ;
#306 = DIRECTION ( 'NONE',  ( -0.000000000000000000, -0.000000000000000000, -1.000000000000000000 ) ) ;
#307 = CARTESIAN_POINT ( 'NONE',  ( -3.450000000000000178, 4.225031457058368824E-16, 4.999999999999991118 ) ) ;
ENDSEC;
END-ISO-10303-21;
