ISO-10303-21;
HEADER;
FILE_DESCRIPTION (( 'STEP AP203' ),
    '1' );
FILE_NAME ('c511.STEP',
    '2022-06-20T09:50:25',
    ( '' ),
    ( '' ),
    'SwSTEP 2.0',
    'SolidWorks 2019',
    '' );
FILE_SCHEMA (( 'CONFIG_CONTROL_DESIGN' ));
ENDSEC;

DATA;
#1 = DIRECTION ( 'NONE',  ( -0.000000000000000000, -0.000000000000000000, -1.000000000000000000 ) ) ;
#2 = EDGE_CURVE ( 'NONE', #290, #28, #93, .T. ) ;
#3 = DIRECTION ( 'NONE',  ( 0.000000000000000000, 0.000000000000000000, -1.000000000000000000 ) ) ;
#4 = CARTESIAN_POINT ( 'NONE',  ( 3.949999999999999734, 0.000000000000000000, 4.999999999999991118 ) ) ;
#5 = CLOSED_SHELL ( 'NONE', ( #112, #220, #158, #133, #124, #101, #50, #188, #54 ) ) ;
#6 = ORIENTED_EDGE ( 'NONE', *, *, #284, .F. ) ;
#7 = AXIS2_PLACEMENT_3D ( 'NONE', #97, #149, #100 ) ;
#8 = ORIENTED_EDGE ( 'NONE', *, *, #284, .T. ) ;
#9 = EDGE_CURVE ( 'NONE', #178, #10, #146, .T. ) ;
#10 = VERTEX_POINT ( 'NONE', #230 ) ;
#11 = AXIS2_PLACEMENT_3D ( 'NONE', #122, #172, #307 ) ;
#12 = ORIENTED_EDGE ( 'NONE', *, *, #223, .T. ) ;
#13 = EDGE_CURVE ( 'NONE', #160, #58, #301, .T. ) ;
#14 = DIRECTION ( 'NONE',  ( 0.000000000000000000, 0.000000000000000000, 1.000000000000000000 ) ) ;
#15 = AXIS2_PLACEMENT_3D ( 'NONE', #299, #19, #145 ) ;
#16 = ORIENTED_EDGE ( 'NONE', *, *, #2, .T. ) ;
#17 = APPROVAL_PERSON_ORGANIZATION ( #62, #212, #295 ) ;
#18 = DIRECTION ( 'NONE',  ( 1.000000000000000000, 0.000000000000000000, -0.000000000000000000 ) ) ;
#19 = DIRECTION ( 'NONE',  ( 0.000000000000000000, 0.000000000000000000, 1.000000000000000000 ) ) ;
#20 = APPROVAL_STATUS ( 'not_yet_approved' ) ;
#21 = CARTESIAN_POINT ( 'NONE',  ( -3.750000000000000000, 0.000000000000000000, 5.199999999999982414 ) ) ;
#22 = CALENDAR_DATE ( 2022, 20, 6 ) ;
#23 = CIRCLE ( 'NONE', #184, 0.1999999999999996503 ) ;
#24 = CARTESIAN_POINT ( 'NONE',  ( -3.949999999999999734, 4.837354856632044071E-16, 4.999999999999991118 ) ) ;
#25 = CYLINDRICAL_SURFACE ( 'NONE', #95, 6.000000000000000888 ) ;
#26 = FACE_OUTER_BOUND ( 'NONE', #34, .T. ) ;
#27 = EDGE_CURVE ( 'NONE', #79, #268, #297, .T. ) ;
#28 = VERTEX_POINT ( 'NONE', #94 ) ;
#29 = ORIENTED_EDGE ( 'NONE', *, *, #201, .F. ) ;
#30 = PRODUCT_DEFINITION_FORMATION_WITH_SPECIFIED_SOURCE ( 'LIBOVOLNÝ', '', #269, .NOT_KNOWN. ) ;
#31 = CC_DESIGN_PERSON_AND_ORGANIZATION_ASSIGNMENT ( #300, #258, ( #30 ) ) ;
#32 = ORIENTED_EDGE ( 'NONE', *, *, #253, .T. ) ;
#33 = TOROIDAL_SURFACE ( 'NONE', #102, 3.949999999999999734, 0.2000000000000000111 ) ;
#34 = EDGE_LOOP ( 'NONE', ( #248, #32 ) ) ;
#35 = CC_DESIGN_APPROVAL ( #150, ( #228 ) ) ;
#36 = ADVANCED_BREP_SHAPE_REPRESENTATION ( 'c511', ( #244, #68 ), #129 ) ;
#37 = CYLINDRICAL_SURFACE ( 'NONE', #203, 6.000000000000000888 ) ;
#38 = DIRECTION ( 'NONE',  ( 1.000000000000000000, 0.000000000000000000, 0.000000000000000000 ) ) ;
#39 = CARTESIAN_POINT ( 'NONE',  ( 0.000000000000000000, 0.000000000000000000, 5.000000000000000000 ) ) ;
#40 = PERSON_AND_ORGANIZATION ( #103, #108 ) ;
#41 = CARTESIAN_POINT ( 'NONE',  ( -3.750000000000000000, 0.000000000000000000, 505.0000000000000000 ) ) ;
#42 = CC_DESIGN_SECURITY_CLASSIFICATION ( #74, ( #30 ) ) ;
#43 = DATE_AND_TIME ( #87, #197 ) ;
#44 = EDGE_CURVE ( 'NONE', #268, #181, #272, .T. ) ;
#45 = ORIENTED_EDGE ( 'NONE', *, *, #267, .F. ) ;
#46 = PERSON_AND_ORGANIZATION_ROLE ( 'design_supplier' ) ;
#47 = FACE_OUTER_BOUND ( 'NONE', #83, .T. ) ;
#48 = APPROVAL_DATE_TIME ( #283, #150 ) ;
#49 = CARTESIAN_POINT ( 'NONE',  ( 0.000000000000000000, 0.000000000000000000, 5.000000000000000000 ) ) ;
#50 = ADVANCED_FACE ( 'NONE', ( #205 ), #282, .T. ) ;
#51 = CIRCLE ( 'NONE', #82, 3.750000000000000000 ) ;
#52 = CARTESIAN_POINT ( 'NONE',  ( 0.000000000000000000, 0.000000000000000000, 5.000000000000000000 ) ) ;
#53 = DIRECTION ( 'NONE',  ( 1.000000000000000000, 0.000000000000000000, 0.000000000000000000 ) ) ;
#54 = ADVANCED_FACE ( 'NONE', ( #304 ), #33, .F. ) ;
#55 = ORIENTED_EDGE ( 'NONE', *, *, #288, .F. ) ;
#56 = ORIENTED_EDGE ( 'NONE', *, *, #2, .F. ) ;
#57 = CC_DESIGN_PERSON_AND_ORGANIZATION_ASSIGNMENT ( #210, #189, ( #269 ) ) ;
#58 = VERTEX_POINT ( 'NONE', #238 ) ;
#59 = CC_DESIGN_APPROVAL ( #212, ( #74 ) ) ;
#60 = ORIENTED_EDGE ( 'NONE', *, *, #27, .F. ) ;
#61 = DIRECTION ( 'NONE',  ( 0.000000000000000000, 0.000000000000000000, 1.000000000000000000 ) ) ;
#62 = PERSON_AND_ORGANIZATION ( #103, #108 ) ;
#63 = CARTESIAN_POINT ( 'NONE',  ( 0.000000000000000000, 0.000000000000000000, 5.199999999999982414 ) ) ;
#64 = CALENDAR_DATE ( 2022, 20, 6 ) ;
#65 = DIRECTION ( 'NONE',  ( 1.000000000000000000, 0.000000000000000000, 0.000000000000000000 ) ) ;
#66 = CC_DESIGN_DATE_AND_TIME_ASSIGNMENT ( #235, #121, ( #228 ) ) ;
#67 = CARTESIAN_POINT ( 'NONE',  ( 0.000000000000000000, 0.000000000000000000, 5.000000000000000000 ) ) ;
#68 = AXIS2_PLACEMENT_3D ( 'NONE', #303, #232, #38 ) ;
#69 = DIRECTION ( 'NONE',  ( -1.000000000000000000, 0.000000000000000000, 0.000000000000000000 ) ) ;
#70 = APPLICATION_CONTEXT ( 'configuration controlled 3d designs of mechanical parts and assemblies' ) ;
#71 = APPROVAL_ROLE ( '' ) ;
#72 =( NAMED_UNIT ( * ) SI_UNIT ( $, .STERADIAN. ) SOLID_ANGLE_UNIT ( ) );
#73 = CARTESIAN_POINT ( 'NONE',  ( 0.000000000000000000, 0.000000000000000000, 505.0000000000000000 ) ) ;
#74 = SECURITY_CLASSIFICATION ( '', '', #117 ) ;
#75 = DIRECTION ( 'NONE',  ( -1.000000000000000000, 0.000000000000000000, 0.000000000000000000 ) ) ;
#76 = CARTESIAN_POINT ( 'NONE',  ( 6.000000000000000888, 7.347880794884120722E-16, 0.000000000000000000 ) ) ;
#77 = EDGE_CURVE ( 'NONE', #268, #58, #186, .T. ) ;
#78 = LOCAL_TIME ( 11, 50, 25.00000000000000000, #260 ) ;
#79 = VERTEX_POINT ( 'NONE', #86 ) ;
#80 = ORIENTED_EDGE ( 'NONE', *, *, #44, .T. ) ;
#81 = ORIENTED_EDGE ( 'NONE', *, *, #84, .T. ) ;
#82 = AXIS2_PLACEMENT_3D ( 'NONE', #123, #217, #98 ) ;
#83 = EDGE_LOOP ( 'NONE', ( #131, #8 ) ) ;
#84 = EDGE_CURVE ( 'NONE', #58, #268, #119, .T. ) ;
#85 = APPLICATION_CONTEXT ( 'configuration controlled 3d designs of mechanical parts and assemblies' ) ;
#86 = CARTESIAN_POINT ( 'NONE',  ( -3.750000000000000000, 0.000000000000000000, 505.0000000000000000 ) ) ;
#87 = CALENDAR_DATE ( 2022, 20, 6 ) ;
#88 = DIRECTION ( 'NONE',  ( -0.000000000000000000, -0.000000000000000000, -1.000000000000000000 ) ) ;
#89 = CARTESIAN_POINT ( 'NONE',  ( -3.949999999999999734, 4.837354856632044071E-16, 5.199999999999982414 ) ) ;
#90 = CC_DESIGN_PERSON_AND_ORGANIZATION_ASSIGNMENT ( #254, #168, ( #228 ) ) ;
#91 = CALENDAR_DATE ( 2022, 20, 6 ) ;
#92 = DIRECTION ( 'NONE',  ( 0.000000000000000000, 0.000000000000000000, 1.000000000000000000 ) ) ;
#93 = CIRCLE ( 'NONE', #138, 6.000000000000000888 ) ;
#94 = CARTESIAN_POINT ( 'NONE',  ( -6.000000000000000888, 0.000000000000000000, 0.000000000000000000 ) ) ;
#95 = AXIS2_PLACEMENT_3D ( 'NONE', #245, #171, #75 ) ;
#96 = COORDINATED_UNIVERSAL_TIME_OFFSET ( 1, 0, .AHEAD. ) ;
#97 = CARTESIAN_POINT ( 'NONE',  ( 0.000000000000000000, 0.000000000000000000, 505.0000000000000000 ) ) ;
#98 = DIRECTION ( 'NONE',  ( 1.000000000000000000, 0.000000000000000000, 0.000000000000000000 ) ) ;
#99 = APPROVAL_PERSON_ORGANIZATION ( #143, #150, #185 ) ;
#100 = DIRECTION ( 'NONE',  ( 1.000000000000000000, 0.000000000000000000, 0.000000000000000000 ) ) ;
#101 = ADVANCED_FACE ( 'NONE', ( #252 ), #257, .F. ) ;
#102 = AXIS2_PLACEMENT_3D ( 'NONE', #183, #92, #167 ) ;
#103 = PERSON ( 'NEURÈENÝ', 'NEURÈENÝ', 'NEURÈENÝ', ('NEURÈENÝ'), ('NEURÈENÝ'), ('NEURÈENÝ') ) ;
#104 = EDGE_CURVE ( 'NONE', #10, #290, #182, .T. ) ;
#105 = AXIS2_PLACEMENT_3D ( 'NONE', #73, #151, #262 ) ;
#106 = ORIENTED_EDGE ( 'NONE', *, *, #9, .F. ) ;
#107 = EDGE_LOOP ( 'NONE', ( #249, #157, #130, #225 ) ) ;
#108 = ORGANIZATION ( 'NEURÈENÝ', 'NEURÈENÝ', '' ) ;
#109 = CARTESIAN_POINT ( 'NONE',  ( 0.000000000000000000, 0.000000000000000000, 0.000000000000000000 ) ) ;
#110 = DIRECTION ( 'NONE',  ( 1.000000000000000000, 0.000000000000000000, 0.000000000000000000 ) ) ;
#111 = APPROVAL_DATE_TIME ( #275, #239 ) ;
#112 = ADVANCED_FACE ( 'NONE', ( #236 ), #280, .F. ) ;
#113 = PLANE ( 'NONE',  #176 ) ;
#114 = AXIS2_PLACEMENT_3D ( 'NONE', #52, #241, #53 ) ;
#115 = SHAPE_DEFINITION_REPRESENTATION ( #194, #36 ) ;
#116 = DIRECTION ( 'NONE',  ( -1.000000000000000000, 0.000000000000000000, 0.000000000000000000 ) ) ;
#117 = SECURITY_CLASSIFICATION_LEVEL ( 'unclassified' ) ;
#118 = DIRECTION ( 'NONE',  ( 0.000000000000000000, 0.000000000000000000, 1.000000000000000000 ) ) ;
#119 = CIRCLE ( 'NONE', #15, 3.750000000000000000 ) ;
#120 = APPROVAL_STATUS ( 'not_yet_approved' ) ;
#121 = DATE_TIME_ROLE ( 'creation_date' ) ;
#122 = CARTESIAN_POINT ( 'NONE',  ( 0.000000000000000000, 0.000000000000000000, 0.000000000000000000 ) ) ;
#123 = CARTESIAN_POINT ( 'NONE',  ( 0.000000000000000000, 0.000000000000000000, 505.0000000000000000 ) ) ;
#124 = ADVANCED_FACE ( 'NONE', ( #231, #47 ), #113, .T. ) ;
#125 = DIRECTION ( 'NONE',  ( 1.000000000000000000, 0.000000000000000000, 0.000000000000000000 ) ) ;
#126 = LINE ( 'NONE', #286, #219 ) ;
#127 = CC_DESIGN_PERSON_AND_ORGANIZATION_ASSIGNMENT ( #40, #278, ( #74 ) ) ;
#128 = ORIENTED_EDGE ( 'NONE', *, *, #253, .F. ) ;
#129 =( GEOMETRIC_REPRESENTATION_CONTEXT ( 3 ) GLOBAL_UNCERTAINTY_ASSIGNED_CONTEXT ( ( #229 ) ) GLOBAL_UNIT_ASSIGNED_CONTEXT ( ( #153, #285, #72 ) ) REPRESENTATION_CONTEXT ( 'NONE', 'WORKASPACE' ) );
#130 = ORIENTED_EDGE ( 'NONE', *, *, #267, .T. ) ;
#131 = ORIENTED_EDGE ( 'NONE', *, *, #9, .T. ) ;
#132 = AXIS2_PLACEMENT_3D ( 'NONE', #89, #190, #139 ) ;
#133 = ADVANCED_FACE ( 'NONE', ( #251 ), #37, .T. ) ;
#134 = ORIENTED_EDGE ( 'NONE', *, *, #77, .T. ) ;
#135 = AXIS2_PLACEMENT_3D ( 'NONE', #161, #165, #214 ) ;
#136 = EDGE_LOOP ( 'NONE', ( #224, #293 ) ) ;
#137 = PRODUCT_RELATED_PRODUCT_CATEGORY ( 'detail', '', ( #269 ) ) ;
#138 = AXIS2_PLACEMENT_3D ( 'NONE', #255, #118, #110 ) ;
#139 = DIRECTION ( 'NONE',  ( -1.000000000000000000, 1.224646799147353454E-16, 0.000000000000000000 ) ) ;
#140 = COORDINATED_UNIVERSAL_TIME_OFFSET ( 1, 0, .AHEAD. ) ;
#141 = DIRECTION ( 'NONE',  ( 1.000000000000000000, 0.000000000000000000, -0.000000000000000000 ) ) ;
#142 = CIRCLE ( 'NONE', #222, 3.949999999999999734 ) ;
#143 = PERSON_AND_ORGANIZATION ( #103, #108 ) ;
#144 = CARTESIAN_POINT ( 'NONE',  ( 6.000000000000000888, 7.347880794884120722E-16, 5.000000000000000000 ) ) ;
#145 = DIRECTION ( 'NONE',  ( 1.000000000000000000, 0.000000000000000000, 0.000000000000000000 ) ) ;
#146 = CIRCLE ( 'NONE', #265, 6.000000000000000888 ) ;
#147 = PERSON_AND_ORGANIZATION ( #103, #108 ) ;
#148 = CARTESIAN_POINT ( 'NONE',  ( 0.000000000000000000, 0.000000000000000000, 505.0000000000000000 ) ) ;
#149 = DIRECTION ( 'NONE',  ( 0.000000000000000000, 0.000000000000000000, 1.000000000000000000 ) ) ;
#150 = APPROVAL ( #120, 'NEURÈENÝ' ) ;
#151 = DIRECTION ( 'NONE',  ( 0.000000000000000000, 0.000000000000000000, 1.000000000000000000 ) ) ;
#152 = VECTOR ( 'NONE', #206, 1000.000000000000000 ) ;
#153 =( LENGTH_UNIT ( ) NAMED_UNIT ( * ) SI_UNIT ( .MILLI., .METRE. ) );
#154 = VECTOR ( 'NONE', #234, 1000.000000000000000 ) ;
#155 = EDGE_LOOP ( 'NONE', ( #226, #106, #202, #12 ) ) ;
#156 = LOCAL_TIME ( 11, 50, 25.00000000000000000, #240 ) ;
#157 = ORIENTED_EDGE ( 'NONE', *, *, #84, .F. ) ;
#158 = ADVANCED_FACE ( 'NONE', ( #242 ), #25, .T. ) ;
#159 = ORIENTED_EDGE ( 'NONE', *, *, #233, .F. ) ;
#160 = VERTEX_POINT ( 'NONE', #243 ) ;
#161 = CARTESIAN_POINT ( 'NONE',  ( 0.000000000000000000, 0.000000000000000000, 5.199999999999982414 ) ) ;
#162 = AXIS2_PLACEMENT_3D ( 'NONE', #148, #261, #263 ) ;
#163 = CARTESIAN_POINT ( 'NONE',  ( 3.750000000000000000, 4.592425496802573972E-16, 505.0000000000000000 ) ) ;
#164 = APPLICATION_PROTOCOL_DEFINITION ( 'international standard', 'config_control_design', 1994, #70 ) ;
#165 = DIRECTION ( 'NONE',  ( 0.000000000000000000, 0.000000000000000000, 1.000000000000000000 ) ) ;
#166 = DATE_AND_TIME ( #91, #156 ) ;
#167 = DIRECTION ( 'NONE',  ( 1.000000000000000000, 0.000000000000000000, 0.000000000000000000 ) ) ;
#168 = PERSON_AND_ORGANIZATION_ROLE ( 'creator' ) ;
#169 = DIRECTION ( 'NONE',  ( 0.000000000000000000, 0.000000000000000000, 1.000000000000000000 ) ) ;
#170 = CALENDAR_DATE ( 2022, 20, 6 ) ;
#171 = DIRECTION ( 'NONE',  ( -0.000000000000000000, -0.000000000000000000, -1.000000000000000000 ) ) ;
#172 = DIRECTION ( 'NONE',  ( 0.000000000000000000, 0.000000000000000000, 1.000000000000000000 ) ) ;
#173 = DIRECTION ( 'NONE',  ( 1.000000000000000000, 0.000000000000000000, 0.000000000000000000 ) ) ;
#174 = DIRECTION ( 'NONE',  ( -0.000000000000000000, -0.000000000000000000, -1.000000000000000000 ) ) ;
#175 = AXIS2_PLACEMENT_3D ( 'NONE', #211, #88, #69 ) ;
#176 = AXIS2_PLACEMENT_3D ( 'NONE', #274, #61, #18 ) ;
#177 = EDGE_LOOP ( 'NONE', ( #6, #204, #16, #159 ) ) ;
#178 = VERTEX_POINT ( 'NONE', #195 ) ;
#179 = APPROVAL_PERSON_ORGANIZATION ( #213, #239, #71 ) ;
#180 = EDGE_LOOP ( 'NONE', ( #277, #55, #247, #134 ) ) ;
#181 = VERTEX_POINT ( 'NONE', #24 ) ;
#182 = LINE ( 'NONE', #144, #221 ) ;
#183 = CARTESIAN_POINT ( 'NONE',  ( 0.000000000000000000, 0.000000000000000000, 5.199999999999982414 ) ) ;
#184 = AXIS2_PLACEMENT_3D ( 'NONE', #218, #216, #3 ) ;
#185 = APPROVAL_ROLE ( '' ) ;
#186 = CIRCLE ( 'NONE', #273, 3.750000000000000000 ) ;
#187 = DIRECTION ( 'NONE',  ( 0.000000000000000000, 0.000000000000000000, 1.000000000000000000 ) ) ;
#188 = ADVANCED_FACE ( 'NONE', ( #26 ), #198, .T. ) ;
#189 = PERSON_AND_ORGANIZATION_ROLE ( 'design_owner' ) ;
#190 = DIRECTION ( 'NONE',  ( 1.224646799147353207E-16, 1.000000000000000000, -0.000000000000000000 ) ) ;
#191 = CIRCLE ( 'NONE', #114, 6.000000000000000888 ) ;
#192 = APPLICATION_PROTOCOL_DEFINITION ( 'international standard', 'config_control_design', 1994, #85 ) ;
#193 = FACE_OUTER_BOUND ( 'NONE', #270, .T. ) ;
#194 = PRODUCT_DEFINITION_SHAPE ( 'NONE', 'NONE',  #228 ) ;
#195 = CARTESIAN_POINT ( 'NONE',  ( -6.000000000000000888, 0.000000000000000000, 5.000000000000000000 ) ) ;
#196 = CARTESIAN_POINT ( 'NONE',  ( 0.000000000000000000, 0.000000000000000000, 5.000000000000000000 ) ) ;
#197 = LOCAL_TIME ( 11, 50, 25.00000000000000000, #140 ) ;
#198 = PLANE ( 'NONE',  #105 ) ;
#199 = CIRCLE ( 'NONE', #276, 3.949999999999999734 ) ;
#200 = ORIENTED_EDGE ( 'NONE', *, *, #223, .F. ) ;
#201 = EDGE_CURVE ( 'NONE', #291, #181, #199, .T. ) ;
#202 = ORIENTED_EDGE ( 'NONE', *, *, #233, .T. ) ;
#203 = AXIS2_PLACEMENT_3D ( 'NONE', #39, #208, #116 ) ;
#204 = ORIENTED_EDGE ( 'NONE', *, *, #104, .T. ) ;
#205 = FACE_OUTER_BOUND ( 'NONE', #180, .T. ) ;
#206 = DIRECTION ( 'NONE',  ( -0.000000000000000000, -0.000000000000000000, -1.000000000000000000 ) ) ;
#207 = DATE_TIME_ROLE ( 'classification_date' ) ;
#208 = DIRECTION ( 'NONE',  ( -0.000000000000000000, -0.000000000000000000, -1.000000000000000000 ) ) ;
#209 = CC_DESIGN_APPROVAL ( #239, ( #30 ) ) ;
#210 = PERSON_AND_ORGANIZATION ( #103, #108 ) ;
#211 = CARTESIAN_POINT ( 'NONE',  ( 0.000000000000000000, 0.000000000000000000, 505.0000000000000000 ) ) ;
#212 = APPROVAL ( #256, 'NEURÈENÝ' ) ;
#213 = PERSON_AND_ORGANIZATION ( #103, #108 ) ;
#214 = DIRECTION ( 'NONE',  ( 1.000000000000000000, 0.000000000000000000, 0.000000000000000000 ) ) ;
#215 = LOCAL_TIME ( 11, 50, 25.00000000000000000, #281 ) ;
#216 = DIRECTION ( 'NONE',  ( 0.000000000000000000, -1.000000000000000000, 0.000000000000000000 ) ) ;
#217 = DIRECTION ( 'NONE',  ( 0.000000000000000000, 0.000000000000000000, 1.000000000000000000 ) ) ;
#218 = CARTESIAN_POINT ( 'NONE',  ( 3.949999999999999734, 0.000000000000000000, 5.199999999999982414 ) ) ;
#219 = VECTOR ( 'NONE', #1, 1000.000000000000000 ) ;
#220 = ADVANCED_FACE ( 'NONE', ( #193 ), #289, .T. ) ;
#221 = VECTOR ( 'NONE', #259, 1000.000000000000000 ) ;
#222 = AXIS2_PLACEMENT_3D ( 'NONE', #196, #287, #125 ) ;
#223 = EDGE_CURVE ( 'NONE', #28, #290, #266, .T. ) ;
#224 = ORIENTED_EDGE ( 'NONE', *, *, #201, .T. ) ;
#225 = ORIENTED_EDGE ( 'NONE', *, *, #296, .F. ) ;
#226 = ORIENTED_EDGE ( 'NONE', *, *, #104, .F. ) ;
#227 = ORIENTED_EDGE ( 'NONE', *, *, #13, .T. ) ;
#228 = PRODUCT_DEFINITION ( 'NEZNÁMÝ', '', #30, #292 ) ;
#229 = UNCERTAINTY_MEASURE_WITH_UNIT (LENGTH_MEASURE( 1.000000000000000082E-05 ), #153, 'distance_accuracy_value', 'NONE');
#230 = CARTESIAN_POINT ( 'NONE',  ( 6.000000000000000888, 7.347880794884120722E-16, 5.000000000000000000 ) ) ;
#231 = FACE_BOUND ( 'NONE', #136, .T. ) ;
#232 = DIRECTION ( 'NONE',  ( 0.000000000000000000, 0.000000000000000000, 1.000000000000000000 ) ) ;
#233 = EDGE_CURVE ( 'NONE', #178, #28, #126, .T. ) ;
#234 = DIRECTION ( 'NONE',  ( -0.000000000000000000, -0.000000000000000000, -1.000000000000000000 ) ) ;
#235 = DATE_AND_TIME ( #64, #78 ) ;
#236 = FACE_OUTER_BOUND ( 'NONE', #294, .T. ) ;
#237 = APPROVAL_DATE_TIME ( #43, #212 ) ;
#238 = CARTESIAN_POINT ( 'NONE',  ( 3.750000000000000000, 4.592425496802573972E-16, 5.199999999999982414 ) ) ;
#239 = APPROVAL ( #20, 'NEURÈENÝ' ) ;
#240 = COORDINATED_UNIVERSAL_TIME_OFFSET ( 1, 0, .AHEAD. ) ;
#241 = DIRECTION ( 'NONE',  ( 0.000000000000000000, 0.000000000000000000, 1.000000000000000000 ) ) ;
#242 = FACE_OUTER_BOUND ( 'NONE', #177, .T. ) ;
#243 = CARTESIAN_POINT ( 'NONE',  ( 3.750000000000000000, 4.592425496802573972E-16, 505.0000000000000000 ) ) ;
#244 = MANIFOLD_SOLID_BREP ( 'Zaoblit1', #5 ) ;
#245 = CARTESIAN_POINT ( 'NONE',  ( 0.000000000000000000, 0.000000000000000000, 5.000000000000000000 ) ) ;
#246 = CC_DESIGN_PERSON_AND_ORGANIZATION_ASSIGNMENT ( #147, #46, ( #30 ) ) ;
#247 = ORIENTED_EDGE ( 'NONE', *, *, #27, .T. ) ;
#248 = ORIENTED_EDGE ( 'NONE', *, *, #288, .T. ) ;
#249 = ORIENTED_EDGE ( 'NONE', *, *, #44, .F. ) ;
#250 = EDGE_LOOP ( 'NONE', ( #200, #56 ) ) ;
#251 = FACE_OUTER_BOUND ( 'NONE', #155, .T. ) ;
#252 = FACE_OUTER_BOUND ( 'NONE', #250, .T. ) ;
#253 = EDGE_CURVE ( 'NONE', #160, #79, #306, .T. ) ;
#254 = PERSON_AND_ORGANIZATION ( #103, #108 ) ;
#255 = CARTESIAN_POINT ( 'NONE',  ( 0.000000000000000000, 0.000000000000000000, 0.000000000000000000 ) ) ;
#256 = APPROVAL_STATUS ( 'not_yet_approved' ) ;
#257 = PLANE ( 'NONE',  #302 ) ;
#258 = PERSON_AND_ORGANIZATION_ROLE ( 'creator' ) ;
#259 = DIRECTION ( 'NONE',  ( -0.000000000000000000, -0.000000000000000000, -1.000000000000000000 ) ) ;
#260 = COORDINATED_UNIVERSAL_TIME_OFFSET ( 1, 0, .AHEAD. ) ;
#261 = DIRECTION ( 'NONE',  ( -0.000000000000000000, -0.000000000000000000, -1.000000000000000000 ) ) ;
#262 = DIRECTION ( 'NONE',  ( 1.000000000000000000, 0.000000000000000000, -0.000000000000000000 ) ) ;
#263 = DIRECTION ( 'NONE',  ( -1.000000000000000000, 0.000000000000000000, 0.000000000000000000 ) ) ;
#264 = CC_DESIGN_DATE_AND_TIME_ASSIGNMENT ( #166, #207, ( #74 ) ) ;
#265 = AXIS2_PLACEMENT_3D ( 'NONE', #67, #14, #279 ) ;
#266 = CIRCLE ( 'NONE', #11, 6.000000000000000888 ) ;
#267 = EDGE_CURVE ( 'NONE', #58, #291, #23, .T. ) ;
#268 = VERTEX_POINT ( 'NONE', #21 ) ;
#269 = PRODUCT ( 'c511', 'c511', '', ( #305 ) ) ;
#270 = EDGE_LOOP ( 'NONE', ( #128, #227, #81, #60 ) ) ;
#271 = ORIENTED_EDGE ( 'NONE', *, *, #77, .F. ) ;
#272 = CIRCLE ( 'NONE', #132, 0.1999999999999996503 ) ;
#273 = AXIS2_PLACEMENT_3D ( 'NONE', #63, #187, #65 ) ;
#274 = CARTESIAN_POINT ( 'NONE',  ( 0.000000000000000000, 0.000000000000000000, 5.000000000000000000 ) ) ;
#275 = DATE_AND_TIME ( #170, #215 ) ;
#276 = AXIS2_PLACEMENT_3D ( 'NONE', #49, #174, #173 ) ;
#277 = ORIENTED_EDGE ( 'NONE', *, *, #13, .F. ) ;
#278 = PERSON_AND_ORGANIZATION_ROLE ( 'classification_officer' ) ;
#279 = DIRECTION ( 'NONE',  ( 1.000000000000000000, 0.000000000000000000, 0.000000000000000000 ) ) ;
#280 = TOROIDAL_SURFACE ( 'NONE', #135, 3.949999999999999734, 0.2000000000000000111 ) ;
#281 = COORDINATED_UNIVERSAL_TIME_OFFSET ( 1, 0, .AHEAD. ) ;
#282 = CYLINDRICAL_SURFACE ( 'NONE', #175, 3.750000000000000000 ) ;
#283 = DATE_AND_TIME ( #22, #298 ) ;
#284 = EDGE_CURVE ( 'NONE', #10, #178, #191, .T. ) ;
#285 =( NAMED_UNIT ( * ) PLANE_ANGLE_UNIT ( ) SI_UNIT ( $, .RADIAN. ) );
#286 = CARTESIAN_POINT ( 'NONE',  ( -6.000000000000000888, 0.000000000000000000, 5.000000000000000000 ) ) ;
#287 = DIRECTION ( 'NONE',  ( -0.000000000000000000, -0.000000000000000000, -1.000000000000000000 ) ) ;
#288 = EDGE_CURVE ( 'NONE', #79, #160, #51, .T. ) ;
#289 = CYLINDRICAL_SURFACE ( 'NONE', #162, 3.750000000000000000 ) ;
#290 = VERTEX_POINT ( 'NONE', #76 ) ;
#291 = VERTEX_POINT ( 'NONE', #4 ) ;
#292 = DESIGN_CONTEXT ( 'detailed design', #85, 'design' ) ;
#293 = ORIENTED_EDGE ( 'NONE', *, *, #296, .T. ) ;
#294 = EDGE_LOOP ( 'NONE', ( #271, #80, #29, #45 ) ) ;
#295 = APPROVAL_ROLE ( '' ) ;
#296 = EDGE_CURVE ( 'NONE', #181, #291, #142, .T. ) ;
#297 = LINE ( 'NONE', #41, #154 ) ;
#298 = LOCAL_TIME ( 11, 50, 25.00000000000000000, #96 ) ;
#299 = CARTESIAN_POINT ( 'NONE',  ( 0.000000000000000000, 0.000000000000000000, 5.199999999999982414 ) ) ;
#300 = PERSON_AND_ORGANIZATION ( #103, #108 ) ;
#301 = LINE ( 'NONE', #163, #152 ) ;
#302 = AXIS2_PLACEMENT_3D ( 'NONE', #109, #169, #141 ) ;
#303 = CARTESIAN_POINT ( 'NONE',  ( 0.000000000000000000, 0.000000000000000000, 0.000000000000000000 ) ) ;
#304 = FACE_OUTER_BOUND ( 'NONE', #107, .T. ) ;
#305 = MECHANICAL_CONTEXT ( 'NONE', #70, 'mechanical' ) ;
#306 = CIRCLE ( 'NONE', #7, 3.750000000000000000 ) ;
#307 = DIRECTION ( 'NONE',  ( 1.000000000000000000, 0.000000000000000000, 0.000000000000000000 ) ) ;
ENDSEC;
END-ISO-10303-21;
