ISO-10303-21;
HEADER;
FILE_DESCRIPTION (( 'STEP AP203' ),
    '1' );
FILE_NAME ('9b7f.STEP',
    '2022-06-20T09:39:20',
    ( '' ),
    ( '' ),
    'SwSTEP 2.0',
    'SolidWorks 2019',
    '' );
FILE_SCHEMA (( 'CONFIG_CONTROL_DESIGN' ));
ENDSEC;

DATA;
#1 = CC_DESIGN_DATE_AND_TIME_ASSIGNMENT ( #29, #83, ( #176 ) ) ;
#2 = CARTESIAN_POINT ( 'NONE',  ( 0.000000000000000000, 0.000000000000000000, 5.000000000000000000 ) ) ;
#3 = PERSON ( 'NEURÈENÝ', 'NEURÈENÝ', 'NEURÈENÝ', ('NEURÈENÝ'), ('NEURÈENÝ'), ('NEURÈENÝ') ) ;
#4 = DATE_AND_TIME ( #155, #38 ) ;
#5 = DIRECTION ( 'NONE',  ( -1.000000000000000000, 0.000000000000000000, 0.000000000000000000 ) ) ;
#6 = PERSON_AND_ORGANIZATION ( #3, #293 ) ;
#7 = DIRECTION ( 'NONE',  ( -0.000000000000000000, -0.000000000000000000, -1.000000000000000000 ) ) ;
#8 = CARTESIAN_POINT ( 'NONE',  ( 0.000000000000000000, 0.000000000000000000, 5.200000000000009948 ) ) ;
#9 = CC_DESIGN_PERSON_AND_ORGANIZATION_ASSIGNMENT ( #170, #146, ( #82 ) ) ;
#10 = VECTOR ( 'NONE', #46, 1000.000000000000000 ) ;
#11 = CARTESIAN_POINT ( 'NONE',  ( 0.000000000000000000, 0.000000000000000000, 0.000000000000000000 ) ) ;
#12 = DIRECTION ( 'NONE',  ( -1.000000000000000000, 0.000000000000000000, 0.000000000000000000 ) ) ;
#13 = DIRECTION ( 'NONE',  ( -1.000000000000000000, 1.224646799147353454E-16, 0.000000000000000000 ) ) ;
#14 = DIRECTION ( 'NONE',  ( -0.000000000000000000, -0.000000000000000000, -1.000000000000000000 ) ) ;
#15 = MECHANICAL_CONTEXT ( 'NONE', #184, 'mechanical' ) ;
#16 = AXIS2_PLACEMENT_3D ( 'NONE', #11, #154, #165 ) ;
#17 = AXIS2_PLACEMENT_3D ( 'NONE', #44, #90, #12 ) ;
#18 = ORIENTED_EDGE ( 'NONE', *, *, #84, .F. ) ;
#19 = ADVANCED_FACE ( 'NONE', ( #266 ), #110, .T. ) ;
#20 = PERSON_AND_ORGANIZATION_ROLE ( 'creator' ) ;
#21 = ORIENTED_EDGE ( 'NONE', *, *, #213, .F. ) ;
#22 = APPROVAL_STATUS ( 'not_yet_approved' ) ;
#23 = DIRECTION ( 'NONE',  ( 1.000000000000000000, 0.000000000000000000, -0.000000000000000000 ) ) ;
#24 = PRODUCT ( '9b7f', '9b7f', '', ( #15 ) ) ;
#25 = PERSON_AND_ORGANIZATION ( #3, #293 ) ;
#26 = VERTEX_POINT ( 'NONE', #123 ) ;
#27 = ADVANCED_FACE ( 'NONE', ( #216 ), #98, .F. ) ;
#28 =( GEOMETRIC_REPRESENTATION_CONTEXT ( 3 ) GLOBAL_UNCERTAINTY_ASSIGNED_CONTEXT ( ( #43 ) ) GLOBAL_UNIT_ASSIGNED_CONTEXT ( ( #282, #232, #261 ) ) REPRESENTATION_CONTEXT ( 'NONE', 'WORKASPACE' ) );
#29 = DATE_AND_TIME ( #131, #252 ) ;
#30 = DIRECTION ( 'NONE',  ( 0.000000000000000000, 0.000000000000000000, 1.000000000000000000 ) ) ;
#31 = CIRCLE ( 'NONE', #210, 5.100000000000001421 ) ;
#32 = FACE_OUTER_BOUND ( 'NONE', #50, .T. ) ;
#33 = SHAPE_DEFINITION_REPRESENTATION ( #292, #247 ) ;
#34 = DIRECTION ( 'NONE',  ( 0.000000000000000000, 0.000000000000000000, -1.000000000000000000 ) ) ;
#35 = DIRECTION ( 'NONE',  ( 0.000000000000000000, 0.000000000000000000, 1.000000000000000000 ) ) ;
#36 = CARTESIAN_POINT ( 'NONE',  ( 0.000000000000000000, 0.000000000000000000, 5.000000000000000000 ) ) ;
#37 = TOROIDAL_SURFACE ( 'NONE', #264, 5.300000000000000711, 0.2000000000000000111 ) ;
#38 = LOCAL_TIME ( 11, 39, 20.00000000000000000, #178 ) ;
#39 = CARTESIAN_POINT ( 'NONE',  ( 0.000000000000000000, 0.000000000000000000, 5.000000000000000000 ) ) ;
#40 = MANIFOLD_SOLID_BREP ( 'Zaoblit1', #206 ) ;
#41 = DIRECTION ( 'NONE',  ( 1.224646799147353207E-16, 1.000000000000000000, -0.000000000000000000 ) ) ;
#42 = FACE_OUTER_BOUND ( 'NONE', #77, .T. ) ;
#43 = UNCERTAINTY_MEASURE_WITH_UNIT (LENGTH_MEASURE( 1.000000000000000082E-05 ), #282, 'distance_accuracy_value', 'NONE');
#44 = CARTESIAN_POINT ( 'NONE',  ( 0.000000000000000000, 0.000000000000000000, 5.000000000000000000 ) ) ;
#45 = EDGE_CURVE ( 'NONE', #151, #26, #113, .T. ) ;
#46 = DIRECTION ( 'NONE',  ( -0.000000000000000000, -0.000000000000000000, -1.000000000000000000 ) ) ;
#47 = ADVANCED_FACE ( 'NONE', ( #60 ), #37, .F. ) ;
#48 = DATE_AND_TIME ( #254, #290 ) ;
#49 = CC_DESIGN_APPROVAL ( #235, ( #82 ) ) ;
#50 = EDGE_LOOP ( 'NONE', ( #81, #143, #234, #196 ) ) ;
#51 = VERTEX_POINT ( 'NONE', #272 ) ;
#52 = CARTESIAN_POINT ( 'NONE',  ( 0.000000000000000000, 0.000000000000000000, 0.000000000000000000 ) ) ;
#53 = EDGE_LOOP ( 'NONE', ( #105, #76, #168, #304 ) ) ;
#54 = COORDINATED_UNIVERSAL_TIME_OFFSET ( 1, 0, .AHEAD. ) ;
#55 = PRODUCT_RELATED_PRODUCT_CATEGORY ( 'detail', '', ( #24 ) ) ;
#56 = VERTEX_POINT ( 'NONE', #159 ) ;
#57 = CIRCLE ( 'NONE', #75, 8.000000000000000000 ) ;
#58 = DIRECTION ( 'NONE',  ( -0.000000000000000000, -0.000000000000000000, -1.000000000000000000 ) ) ;
#59 = CARTESIAN_POINT ( 'NONE',  ( 0.000000000000000000, 0.000000000000000000, 255.0000000000000000 ) ) ;
#60 = FACE_OUTER_BOUND ( 'NONE', #145, .T. ) ;
#61 = EDGE_CURVE ( 'NONE', #51, #174, #175, .T. ) ;
#62 = FACE_OUTER_BOUND ( 'NONE', #53, .T. ) ;
#63 = DIRECTION ( 'NONE',  ( 1.000000000000000000, 0.000000000000000000, 0.000000000000000000 ) ) ;
#64 = AXIS2_PLACEMENT_3D ( 'NONE', #59, #7, #109 ) ;
#65 = APPROVAL_PERSON_ORGANIZATION ( #148, #126, #214 ) ;
#66 = ADVANCED_FACE ( 'NONE', ( #32 ), #156, .T. ) ;
#67 = PLANE ( 'NONE',  #195 ) ;
#68 = DIRECTION ( 'NONE',  ( -1.000000000000000000, 0.000000000000000000, 0.000000000000000000 ) ) ;
#69 = DIRECTION ( 'NONE',  ( 1.000000000000000000, 0.000000000000000000, 0.000000000000000000 ) ) ;
#70 = AXIS2_PLACEMENT_3D ( 'NONE', #222, #238, #23 ) ;
#71 = CC_DESIGN_PERSON_AND_ORGANIZATION_ASSIGNMENT ( #236, #20, ( #82 ) ) ;
#72 = AXIS2_PLACEMENT_3D ( 'NONE', #179, #223, #226 ) ;
#73 = PERSON_AND_ORGANIZATION_ROLE ( 'creator' ) ;
#74 = VERTEX_POINT ( 'NONE', #86 ) ;
#75 = AXIS2_PLACEMENT_3D ( 'NONE', #36, #30, #129 ) ;
#76 = ORIENTED_EDGE ( 'NONE', *, *, #258, .T. ) ;
#77 = EDGE_LOOP ( 'NONE', ( #306, #128 ) ) ;
#78 = APPLICATION_PROTOCOL_DEFINITION ( 'international standard', 'config_control_design', 1994, #184 ) ;
#79 = ORIENTED_EDGE ( 'NONE', *, *, #137, .T. ) ;
#80 = DIRECTION ( 'NONE',  ( 0.000000000000000000, 0.000000000000000000, 1.000000000000000000 ) ) ;
#81 = ORIENTED_EDGE ( 'NONE', *, *, #258, .F. ) ;
#82 = PRODUCT_DEFINITION_FORMATION_WITH_SPECIFIED_SOURCE ( 'LIBOVOLNÝ', '', #24, .NOT_KNOWN. ) ;
#83 = DATE_TIME_ROLE ( 'classification_date' ) ;
#84 = EDGE_CURVE ( 'NONE', #192, #26, #249, .T. ) ;
#85 = DIRECTION ( 'NONE',  ( 1.000000000000000000, 0.000000000000000000, 0.000000000000000000 ) ) ;
#86 = CARTESIAN_POINT ( 'NONE',  ( 8.000000000000000000, 9.797174393178825657E-16, 0.000000000000000000 ) ) ;
#87 = AXIS2_PLACEMENT_3D ( 'NONE', #246, #112, #34 ) ;
#88 = SECURITY_CLASSIFICATION_LEVEL ( 'unclassified' ) ;
#89 = EDGE_CURVE ( 'NONE', #56, #74, #161, .T. ) ;
#90 = DIRECTION ( 'NONE',  ( -0.000000000000000000, -0.000000000000000000, -1.000000000000000000 ) ) ;
#91 = CARTESIAN_POINT ( 'NONE',  ( -5.100000000000001421, 0.000000000000000000, 255.0000000000000000 ) ) ;
#92 = FACE_OUTER_BOUND ( 'NONE', #121, .T. ) ;
#93 = CARTESIAN_POINT ( 'NONE',  ( -5.300000000000000711, 6.490628035480971924E-16, 5.000000000000005329 ) ) ;
#94 = AXIS2_PLACEMENT_3D ( 'NONE', #2, #188, #68 ) ;
#95 = EDGE_CURVE ( 'NONE', #26, #174, #202, .T. ) ;
#96 = DIRECTION ( 'NONE',  ( 1.000000000000000000, 0.000000000000000000, 0.000000000000000000 ) ) ;
#97 = APPROVAL_ROLE ( '' ) ;
#98 = PLANE ( 'NONE',  #240 ) ;
#99 = APPROVAL_DATE_TIME ( #253, #126 ) ;
#100 = ORIENTED_EDGE ( 'NONE', *, *, #152, .F. ) ;
#101 = APPLICATION_CONTEXT ( 'configuration controlled 3d designs of mechanical parts and assemblies' ) ;
#102 = LINE ( 'NONE', #231, #10 ) ;
#103 = CIRCLE ( 'NONE', #269, 8.000000000000000000 ) ;
#104 = APPROVAL_PERSON_ORGANIZATION ( #6, #262, #268 ) ;
#105 = ORIENTED_EDGE ( 'NONE', *, *, #106, .F. ) ;
#106 = EDGE_CURVE ( 'NONE', #198, #151, #289, .T. ) ;
#107 = CARTESIAN_POINT ( 'NONE',  ( 8.000000000000000000, 9.797174393178825657E-16, 5.000000000000000000 ) ) ;
#108 = ORIENTED_EDGE ( 'NONE', *, *, #61, .F. ) ;
#109 = DIRECTION ( 'NONE',  ( -1.000000000000000000, 0.000000000000000000, 0.000000000000000000 ) ) ;
#110 = PLANE ( 'NONE',  #70 ) ;
#111 = EDGE_CURVE ( 'NONE', #192, #51, #180, .T. ) ;
#112 = DIRECTION ( 'NONE',  ( 0.000000000000000000, -1.000000000000000000, 0.000000000000000000 ) ) ;
#113 = LINE ( 'NONE', #91, #150 ) ;
#114 = CIRCLE ( 'NONE', #281, 5.100000000000001421 ) ;
#115 = CC_DESIGN_APPROVAL ( #262, ( #176 ) ) ;
#116 = AXIS2_PLACEMENT_3D ( 'NONE', #227, #58, #5 ) ;
#117 = CC_DESIGN_DATE_AND_TIME_ASSIGNMENT ( #142, #218, ( #135 ) ) ;
#118 = CC_DESIGN_SECURITY_CLASSIFICATION ( #176, ( #82 ) ) ;
#119 = ORIENTED_EDGE ( 'NONE', *, *, #187, .F. ) ;
#120 = DIRECTION ( 'NONE',  ( -0.000000000000000000, -0.000000000000000000, -1.000000000000000000 ) ) ;
#121 = EDGE_LOOP ( 'NONE', ( #299, #100, #147, #287 ) ) ;
#122 = COORDINATED_UNIVERSAL_TIME_OFFSET ( 1, 0, .AHEAD. ) ;
#123 = CARTESIAN_POINT ( 'NONE',  ( -5.100000000000001421, 0.000000000000000000, 5.200000000000009948 ) ) ;
#124 = PERSON_AND_ORGANIZATION ( #3, #293 ) ;
#125 = AXIS2_PLACEMENT_3D ( 'NONE', #279, #259, #96 ) ;
#126 = APPROVAL ( #22, 'NEURÈENÝ' ) ;
#127 = ORIENTED_EDGE ( 'NONE', *, *, #157, .F. ) ;
#128 = ORIENTED_EDGE ( 'NONE', *, *, #187, .T. ) ;
#129 = DIRECTION ( 'NONE',  ( 1.000000000000000000, 0.000000000000000000, 0.000000000000000000 ) ) ;
#130 = CARTESIAN_POINT ( 'NONE',  ( 0.000000000000000000, 0.000000000000000000, 5.200000000000009948 ) ) ;
#131 = CALENDAR_DATE ( 2022, 20, 6 ) ;
#132 = CYLINDRICAL_SURFACE ( 'NONE', #64, 5.100000000000001421 ) ;
#133 = DIRECTION ( 'NONE',  ( 1.000000000000000000, 0.000000000000000000, 0.000000000000000000 ) ) ;
#134 = DIRECTION ( 'NONE',  ( 1.000000000000000000, 0.000000000000000000, 0.000000000000000000 ) ) ;
#135 = PRODUCT_DEFINITION ( 'NEZNÁMÝ', '', #82, #278 ) ;
#136 = VECTOR ( 'NONE', #14, 1000.000000000000000 ) ;
#137 = EDGE_CURVE ( 'NONE', #151, #198, #31, .T. ) ;
#138 = DIRECTION ( 'NONE',  ( 0.000000000000000000, 0.000000000000000000, 1.000000000000000000 ) ) ;
#139 = CIRCLE ( 'NONE', #140, 8.000000000000000000 ) ;
#140 = AXIS2_PLACEMENT_3D ( 'NONE', #182, #295, #69 ) ;
#141 = DIRECTION ( 'NONE',  ( 0.000000000000000000, 0.000000000000000000, 1.000000000000000000 ) ) ;
#142 = DATE_AND_TIME ( #193, #189 ) ;
#143 = ORIENTED_EDGE ( 'NONE', *, *, #137, .F. ) ;
#144 = APPROVAL_DATE_TIME ( #48, #235 ) ;
#145 = EDGE_LOOP ( 'NONE', ( #194, #18, #260, #127 ) ) ;
#146 = PERSON_AND_ORGANIZATION_ROLE ( 'design_supplier' ) ;
#147 = ORIENTED_EDGE ( 'NONE', *, *, #225, .T. ) ;
#148 = PERSON_AND_ORGANIZATION ( #3, #293 ) ;
#149 = VERTEX_POINT ( 'NONE', #243 ) ;
#150 = VECTOR ( 'NONE', #248, 1000.000000000000000 ) ;
#151 = VERTEX_POINT ( 'NONE', #271 ) ;
#152 = EDGE_CURVE ( 'NONE', #149, #283, #57, .T. ) ;
#153 = CARTESIAN_POINT ( 'NONE',  ( 0.000000000000000000, 0.000000000000000000, 255.0000000000000000 ) ) ;
#154 = DIRECTION ( 'NONE',  ( 0.000000000000000000, 0.000000000000000000, 1.000000000000000000 ) ) ;
#155 = CALENDAR_DATE ( 2022, 20, 6 ) ;
#156 = CYLINDRICAL_SURFACE ( 'NONE', #116, 5.100000000000001421 ) ;
#157 = EDGE_CURVE ( 'NONE', #174, #51, #220, .T. ) ;
#158 = CARTESIAN_POINT ( 'NONE',  ( 0.000000000000000000, 0.000000000000000000, 5.000000000000000000 ) ) ;
#159 = CARTESIAN_POINT ( 'NONE',  ( -8.000000000000000000, 0.000000000000000000, 0.000000000000000000 ) ) ;
#160 = CARTESIAN_POINT ( 'NONE',  ( 0.000000000000000000, 0.000000000000000000, 5.000000000000000000 ) ) ;
#161 = CIRCLE ( 'NONE', #16, 8.000000000000000000 ) ;
#162 = ADVANCED_FACE ( 'NONE', ( #62 ), #132, .T. ) ;
#163 = CARTESIAN_POINT ( 'NONE',  ( 5.100000000000001421, 6.245698675651502811E-16, 5.200000000000009948 ) ) ;
#164 = FACE_BOUND ( 'NONE', #285, .T. ) ;
#165 = DIRECTION ( 'NONE',  ( 1.000000000000000000, 0.000000000000000000, 0.000000000000000000 ) ) ;
#166 = DIRECTION ( 'NONE',  ( 1.000000000000000000, 0.000000000000000000, -0.000000000000000000 ) ) ;
#167 = FACE_OUTER_BOUND ( 'NONE', #217, .T. ) ;
#168 = ORIENTED_EDGE ( 'NONE', *, *, #84, .T. ) ;
#169 = ADVANCED_FACE ( 'NONE', ( #200 ), #286, .T. ) ;
#170 = PERSON_AND_ORGANIZATION ( #3, #293 ) ;
#171 = ORIENTED_EDGE ( 'NONE', *, *, #111, .F. ) ;
#172 = PERSON_AND_ORGANIZATION ( #3, #293 ) ;
#173 = PERSON_AND_ORGANIZATION_ROLE ( 'design_owner' ) ;
#174 = VERTEX_POINT ( 'NONE', #93 ) ;
#175 = CIRCLE ( 'NONE', #215, 5.300000000000000711 ) ;
#176 = SECURITY_CLASSIFICATION ( '', '', #88 ) ;
#177 = ORIENTED_EDGE ( 'NONE', *, *, #89, .F. ) ;
#178 = COORDINATED_UNIVERSAL_TIME_OFFSET ( 1, 0, .AHEAD. ) ;
#179 = CARTESIAN_POINT ( 'NONE',  ( 0.000000000000000000, 0.000000000000000000, 5.000000000000000000 ) ) ;
#180 = CIRCLE ( 'NONE', #87, 0.1999999999999996503 ) ;
#181 = DIRECTION ( 'NONE',  ( 1.000000000000000000, 0.000000000000000000, 0.000000000000000000 ) ) ;
#182 = CARTESIAN_POINT ( 'NONE',  ( 0.000000000000000000, 0.000000000000000000, 0.000000000000000000 ) ) ;
#183 = ADVANCED_FACE ( 'NONE', ( #92 ), #185, .T. ) ;
#184 = APPLICATION_CONTEXT ( 'configuration controlled 3d designs of mechanical parts and assemblies' ) ;
#185 = CYLINDRICAL_SURFACE ( 'NONE', #17, 8.000000000000000000 ) ;
#186 = DIRECTION ( 'NONE',  ( 1.000000000000000000, 0.000000000000000000, 0.000000000000000000 ) ) ;
#187 = EDGE_CURVE ( 'NONE', #283, #149, #103, .T. ) ;
#188 = DIRECTION ( 'NONE',  ( -0.000000000000000000, -0.000000000000000000, -1.000000000000000000 ) ) ;
#189 = LOCAL_TIME ( 11, 39, 20.00000000000000000, #122 ) ;
#190 = COORDINATED_UNIVERSAL_TIME_OFFSET ( 1, 0, .AHEAD. ) ;
#191 = EDGE_CURVE ( 'NONE', #74, #56, #139, .T. ) ;
#192 = VERTEX_POINT ( 'NONE', #163 ) ;
#193 = CALENDAR_DATE ( 2022, 20, 6 ) ;
#194 = ORIENTED_EDGE ( 'NONE', *, *, #95, .F. ) ;
#195 = AXIS2_PLACEMENT_3D ( 'NONE', #160, #138, #166 ) ;
#196 = ORIENTED_EDGE ( 'NONE', *, *, #213, .T. ) ;
#197 = DIRECTION ( 'NONE',  ( 0.000000000000000000, 0.000000000000000000, 1.000000000000000000 ) ) ;
#198 = VERTEX_POINT ( 'NONE', #273 ) ;
#199 = COORDINATED_UNIVERSAL_TIME_OFFSET ( 1, 0, .AHEAD. ) ;
#200 = FACE_OUTER_BOUND ( 'NONE', #221, .T. ) ;
#201 = EDGE_LOOP ( 'NONE', ( #177, #239 ) ) ;
#202 = CIRCLE ( 'NONE', #303, 0.1999999999999996503 ) ;
#203 = AXIS2_PLACEMENT_3D ( 'NONE', #52, #197, #300 ) ;
#204 = APPROVAL_STATUS ( 'not_yet_approved' ) ;
#205 = DIRECTION ( 'NONE',  ( 1.000000000000000000, 0.000000000000000000, -0.000000000000000000 ) ) ;
#206 = CLOSED_SHELL ( 'NONE', ( #267, #162, #169, #183, #208, #27, #66, #19, #47 ) ) ;
#207 = LOCAL_TIME ( 11, 39, 20.00000000000000000, #54 ) ;
#208 = ADVANCED_FACE ( 'NONE', ( #164, #42 ), #67, .T. ) ;
#209 = CARTESIAN_POINT ( 'NONE',  ( -5.300000000000000711, 6.490628035480972910E-16, 5.200000000000009948 ) ) ;
#210 = AXIS2_PLACEMENT_3D ( 'NONE', #153, #294, #181 ) ;
#211 = APPROVAL_PERSON_ORGANIZATION ( #124, #235, #97 ) ;
#212 = LINE ( 'NONE', #230, #136 ) ;
#213 = EDGE_CURVE ( 'NONE', #26, #192, #114, .T. ) ;
#214 = APPROVAL_ROLE ( '' ) ;
#215 = AXIS2_PLACEMENT_3D ( 'NONE', #158, #270, #134 ) ;
#216 = FACE_OUTER_BOUND ( 'NONE', #201, .T. ) ;
#217 = EDGE_LOOP ( 'NONE', ( #21, #257, #108, #171 ) ) ;
#218 = DATE_TIME_ROLE ( 'creation_date' ) ;
#219 = ORIENTED_EDGE ( 'NONE', *, *, #191, .T. ) ;
#220 = CIRCLE ( 'NONE', #72, 5.300000000000000711 ) ;
#221 = EDGE_LOOP ( 'NONE', ( #119, #237, #219, #263 ) ) ;
#222 = CARTESIAN_POINT ( 'NONE',  ( 0.000000000000000000, 0.000000000000000000, 255.0000000000000000 ) ) ;
#223 = DIRECTION ( 'NONE',  ( -0.000000000000000000, -0.000000000000000000, -1.000000000000000000 ) ) ;
#224 = DIRECTION ( 'NONE',  ( 0.000000000000000000, 0.000000000000000000, 1.000000000000000000 ) ) ;
#225 = EDGE_CURVE ( 'NONE', #149, #56, #212, .T. ) ;
#226 = DIRECTION ( 'NONE',  ( 1.000000000000000000, 0.000000000000000000, 0.000000000000000000 ) ) ;
#227 = CARTESIAN_POINT ( 'NONE',  ( 0.000000000000000000, 0.000000000000000000, 255.0000000000000000 ) ) ;
#228 = DIRECTION ( 'NONE',  ( 1.000000000000000000, 0.000000000000000000, 0.000000000000000000 ) ) ;
#229 = CC_DESIGN_APPROVAL ( #126, ( #135 ) ) ;
#230 = CARTESIAN_POINT ( 'NONE',  ( -8.000000000000000000, 0.000000000000000000, 5.000000000000000000 ) ) ;
#231 = CARTESIAN_POINT ( 'NONE',  ( 5.100000000000001421, 6.245698675651502811E-16, 255.0000000000000000 ) ) ;
#232 =( NAMED_UNIT ( * ) PLANE_ANGLE_UNIT ( ) SI_UNIT ( $, .RADIAN. ) );
#233 = CARTESIAN_POINT ( 'NONE',  ( 0.000000000000000000, 0.000000000000000000, 255.0000000000000000 ) ) ;
#234 = ORIENTED_EDGE ( 'NONE', *, *, #45, .T. ) ;
#235 = APPROVAL ( #256, 'NEURÈENÝ' ) ;
#236 = PERSON_AND_ORGANIZATION ( #3, #293 ) ;
#237 = ORIENTED_EDGE ( 'NONE', *, *, #250, .T. ) ;
#238 = DIRECTION ( 'NONE',  ( 0.000000000000000000, 0.000000000000000000, 1.000000000000000000 ) ) ;
#239 = ORIENTED_EDGE ( 'NONE', *, *, #191, .F. ) ;
#240 = AXIS2_PLACEMENT_3D ( 'NONE', #277, #255, #205 ) ;
#241 = TOROIDAL_SURFACE ( 'NONE', #125, 5.300000000000000711, 0.2000000000000000111 ) ;
#242 = ORIENTED_EDGE ( 'NONE', *, *, #157, .T. ) ;
#243 = CARTESIAN_POINT ( 'NONE',  ( -8.000000000000000000, 0.000000000000000000, 5.000000000000000000 ) ) ;
#244 = PERSON_AND_ORGANIZATION_ROLE ( 'classification_officer' ) ;
#245 = APPROVAL_DATE_TIME ( #4, #262 ) ;
#246 = CARTESIAN_POINT ( 'NONE',  ( 5.300000000000000711, 0.000000000000000000, 5.200000000000009948 ) ) ;
#247 = ADVANCED_BREP_SHAPE_REPRESENTATION ( '9b7f', ( #40, #203 ), #28 ) ;
#248 = DIRECTION ( 'NONE',  ( -0.000000000000000000, -0.000000000000000000, -1.000000000000000000 ) ) ;
#249 = CIRCLE ( 'NONE', #288, 5.100000000000001421 ) ;
#250 = EDGE_CURVE ( 'NONE', #283, #74, #302, .T. ) ;
#251 = CARTESIAN_POINT ( 'NONE',  ( 0.000000000000000000, 0.000000000000000000, 5.200000000000009948 ) ) ;
#252 = LOCAL_TIME ( 11, 39, 20.00000000000000000, #199 ) ;
#253 = DATE_AND_TIME ( #297, #207 ) ;
#254 = CALENDAR_DATE ( 2022, 20, 6 ) ;
#255 = DIRECTION ( 'NONE',  ( 0.000000000000000000, 0.000000000000000000, 1.000000000000000000 ) ) ;
#256 = APPROVAL_STATUS ( 'not_yet_approved' ) ;
#257 = ORIENTED_EDGE ( 'NONE', *, *, #95, .T. ) ;
#258 = EDGE_CURVE ( 'NONE', #198, #192, #102, .T. ) ;
#259 = DIRECTION ( 'NONE',  ( 0.000000000000000000, 0.000000000000000000, 1.000000000000000000 ) ) ;
#260 = ORIENTED_EDGE ( 'NONE', *, *, #111, .T. ) ;
#261 =( NAMED_UNIT ( * ) SI_UNIT ( $, .STERADIAN. ) SOLID_ANGLE_UNIT ( ) );
#262 = APPROVAL ( #204, 'NEURÈENÝ' ) ;
#263 = ORIENTED_EDGE ( 'NONE', *, *, #225, .F. ) ;
#264 = AXIS2_PLACEMENT_3D ( 'NONE', #130, #224, #63 ) ;
#265 = VECTOR ( 'NONE', #120, 1000.000000000000000 ) ;
#266 = FACE_OUTER_BOUND ( 'NONE', #301, .T. ) ;
#267 = ADVANCED_FACE ( 'NONE', ( #167 ), #241, .F. ) ;
#268 = APPROVAL_ROLE ( '' ) ;
#269 = AXIS2_PLACEMENT_3D ( 'NONE', #39, #274, #186 ) ;
#270 = DIRECTION ( 'NONE',  ( -0.000000000000000000, -0.000000000000000000, -1.000000000000000000 ) ) ;
#271 = CARTESIAN_POINT ( 'NONE',  ( -5.100000000000001421, 0.000000000000000000, 255.0000000000000000 ) ) ;
#272 = CARTESIAN_POINT ( 'NONE',  ( 5.300000000000000711, 0.000000000000000000, 5.000000000000005329 ) ) ;
#273 = CARTESIAN_POINT ( 'NONE',  ( 5.100000000000001421, 6.245698675651502811E-16, 255.0000000000000000 ) ) ;
#274 = DIRECTION ( 'NONE',  ( 0.000000000000000000, 0.000000000000000000, 1.000000000000000000 ) ) ;
#275 = CC_DESIGN_PERSON_AND_ORGANIZATION_ASSIGNMENT ( #25, #73, ( #135 ) ) ;
#276 = APPLICATION_PROTOCOL_DEFINITION ( 'international standard', 'config_control_design', 1994, #101 ) ;
#277 = CARTESIAN_POINT ( 'NONE',  ( 0.000000000000000000, 0.000000000000000000, 0.000000000000000000 ) ) ;
#278 = DESIGN_CONTEXT ( 'detailed design', #101, 'design' ) ;
#279 = CARTESIAN_POINT ( 'NONE',  ( 0.000000000000000000, 0.000000000000000000, 5.200000000000009948 ) ) ;
#280 = ORIENTED_EDGE ( 'NONE', *, *, #106, .T. ) ;
#281 = AXIS2_PLACEMENT_3D ( 'NONE', #251, #141, #228 ) ;
#282 =( LENGTH_UNIT ( ) NAMED_UNIT ( * ) SI_UNIT ( .MILLI., .METRE. ) );
#283 = VERTEX_POINT ( 'NONE', #107 ) ;
#284 = CC_DESIGN_PERSON_AND_ORGANIZATION_ASSIGNMENT ( #172, #173, ( #24 ) ) ;
#285 = EDGE_LOOP ( 'NONE', ( #307, #242 ) ) ;
#286 = CYLINDRICAL_SURFACE ( 'NONE', #94, 8.000000000000000000 ) ;
#287 = ORIENTED_EDGE ( 'NONE', *, *, #89, .T. ) ;
#288 = AXIS2_PLACEMENT_3D ( 'NONE', #8, #35, #133 ) ;
#289 = CIRCLE ( 'NONE', #298, 5.100000000000001421 ) ;
#290 = LOCAL_TIME ( 11, 39, 20.00000000000000000, #190 ) ;
#291 = PERSON_AND_ORGANIZATION ( #3, #293 ) ;
#292 = PRODUCT_DEFINITION_SHAPE ( 'NONE', 'NONE',  #135 ) ;
#293 = ORGANIZATION ( 'NEURÈENÝ', 'NEURÈENÝ', '' ) ;
#294 = DIRECTION ( 'NONE',  ( 0.000000000000000000, 0.000000000000000000, 1.000000000000000000 ) ) ;
#295 = DIRECTION ( 'NONE',  ( 0.000000000000000000, 0.000000000000000000, 1.000000000000000000 ) ) ;
#296 = CC_DESIGN_PERSON_AND_ORGANIZATION_ASSIGNMENT ( #291, #244, ( #176 ) ) ;
#297 = CALENDAR_DATE ( 2022, 20, 6 ) ;
#298 = AXIS2_PLACEMENT_3D ( 'NONE', #233, #80, #85 ) ;
#299 = ORIENTED_EDGE ( 'NONE', *, *, #250, .F. ) ;
#300 = DIRECTION ( 'NONE',  ( 1.000000000000000000, 0.000000000000000000, 0.000000000000000000 ) ) ;
#301 = EDGE_LOOP ( 'NONE', ( #79, #280 ) ) ;
#302 = LINE ( 'NONE', #305, #265 ) ;
#303 = AXIS2_PLACEMENT_3D ( 'NONE', #209, #41, #13 ) ;
#304 = ORIENTED_EDGE ( 'NONE', *, *, #45, .F. ) ;
#305 = CARTESIAN_POINT ( 'NONE',  ( 8.000000000000000000, 9.797174393178825657E-16, 5.000000000000000000 ) ) ;
#306 = ORIENTED_EDGE ( 'NONE', *, *, #152, .T. ) ;
#307 = ORIENTED_EDGE ( 'NONE', *, *, #61, .T. ) ;
ENDSEC;
END-ISO-10303-21;
