ISO-10303-21;
HEADER;
FILE_DESCRIPTION (( 'STEP AP203' ),
    '1' );
FILE_NAME ('e691.STEP',
    '2022-06-20T09:16:19',
    ( '' ),
    ( '' ),
    'SwSTEP 2.0',
    'SolidWorks 2019',
    '' );
FILE_SCHEMA (( 'CONFIG_CONTROL_DESIGN' ));
ENDSEC;

DATA;
#1 = DIRECTION ( 'NONE',  ( 1.000000000000000000, 0.000000000000000000, 0.000000000000000000 ) ) ;
#2 = CC_DESIGN_PERSON_AND_ORGANIZATION_ASSIGNMENT ( #204, #58, ( #36 ) ) ;
#3 =( NAMED_UNIT ( * ) SI_UNIT ( $, .STERADIAN. ) SOLID_ANGLE_UNIT ( ) );
#4 = AXIS2_PLACEMENT_3D ( 'NONE', #144, #288, #240 ) ;
#5 = PRODUCT ( 'e691', 'e691', '', ( #106 ) ) ;
#6 = CC_DESIGN_SECURITY_CLASSIFICATION ( #64, ( #36 ) ) ;
#7 = FACE_OUTER_BOUND ( 'NONE', #18, .T. ) ;
#8 = APPLICATION_CONTEXT ( 'configuration controlled 3d designs of mechanical parts and assemblies' ) ;
#9 = PERSON_AND_ORGANIZATION ( #263, #104 ) ;
#10 = ADVANCED_FACE ( 'NONE', ( #91, #191 ), #232, .T. ) ;
#11 = APPLICATION_PROTOCOL_DEFINITION ( 'international standard', 'config_control_design', 1994, #68 ) ;
#12 = EDGE_LOOP ( 'NONE', ( #156, #37 ) ) ;
#13 = LOCAL_TIME ( 11, 16, 19.00000000000000000, #269 ) ;
#14 = EDGE_LOOP ( 'NONE', ( #39, #16, #45, #67 ) ) ;
#15 = DATE_AND_TIME ( #222, #13 ) ;
#16 = ORIENTED_EDGE ( 'NONE', *, *, #270, .T. ) ;
#17 = SECURITY_CLASSIFICATION_LEVEL ( 'unclassified' ) ;
#18 = EDGE_LOOP ( 'NONE', ( #251, #279, #107, #59 ) ) ;
#19 = AXIS2_PLACEMENT_3D ( 'NONE', #23, #259, #163 ) ;
#20 = ORIENTED_EDGE ( 'NONE', *, *, #96, .F. ) ;
#21 = CARTESIAN_POINT ( 'NONE',  ( 0.000000000000000000, 0.000000000000000000, 10.00000000000000000 ) ) ;
#22 = FACE_OUTER_BOUND ( 'NONE', #12, .T. ) ;
#23 = CARTESIAN_POINT ( 'NONE',  ( 0.000000000000000000, 0.000000000000000000, 10.00000000000000000 ) ) ;
#24 = EDGE_CURVE ( 'NONE', #86, #162, #230, .T. ) ;
#25 = CARTESIAN_POINT ( 'NONE',  ( 0.000000000000000000, 0.000000000000000000, 10.19999999999998685 ) ) ;
#26 = DIRECTION ( 'NONE',  ( 1.000000000000000000, 0.000000000000000000, 0.000000000000000000 ) ) ;
#27 = AXIS2_PLACEMENT_3D ( 'NONE', #184, #273, #65 ) ;
#28 = DIRECTION ( 'NONE',  ( 0.000000000000000000, 0.000000000000000000, 1.000000000000000000 ) ) ;
#29 = DIRECTION ( 'NONE',  ( 0.000000000000000000, 0.000000000000000000, 1.000000000000000000 ) ) ;
#30 = AXIS2_PLACEMENT_3D ( 'NONE', #51, #267, #194 ) ;
#31 = PRODUCT_RELATED_PRODUCT_CATEGORY ( 'detail', '', ( #5 ) ) ;
#32 = CARTESIAN_POINT ( 'NONE',  ( 0.000000000000000000, 0.000000000000000000, 0.000000000000000000 ) ) ;
#33 = PERSON_AND_ORGANIZATION_ROLE ( 'creator' ) ;
#34 = APPROVAL_ROLE ( '' ) ;
#35 = VERTEX_POINT ( 'NONE', #239 ) ;
#36 = PRODUCT_DEFINITION_FORMATION_WITH_SPECIFIED_SOURCE ( 'LIBOVOLNÝ', '', #5, .NOT_KNOWN. ) ;
#37 = ORIENTED_EDGE ( 'NONE', *, *, #211, .T. ) ;
#38 = APPLICATION_PROTOCOL_DEFINITION ( 'international standard', 'config_control_design', 1994, #8 ) ;
#39 = ORIENTED_EDGE ( 'NONE', *, *, #208, .F. ) ;
#40 = ORIENTED_EDGE ( 'NONE', *, *, #301, .F. ) ;
#41 = ADVANCED_FACE ( 'NONE', ( #210 ), #282, .T. ) ;
#42 = VECTOR ( 'NONE', #77, 1000.000000000000000 ) ;
#43 = CYLINDRICAL_SURFACE ( 'NONE', #220, 20.00000000000000000 ) ;
#44 = ORIENTED_EDGE ( 'NONE', *, *, #208, .T. ) ;
#45 = ORIENTED_EDGE ( 'NONE', *, *, #170, .T. ) ;
#46 = DIRECTION ( 'NONE',  ( 1.224646799147353207E-16, 1.000000000000000000, -0.000000000000000000 ) ) ;
#47 = AXIS2_PLACEMENT_3D ( 'NONE', #97, #98, #196 ) ;
#48 = CARTESIAN_POINT ( 'NONE',  ( -16.19999999999999929, 1.983927814618711846E-15, 10.19999999999998685 ) ) ;
#49 =( NAMED_UNIT ( * ) PLANE_ANGLE_UNIT ( ) SI_UNIT ( $, .RADIAN. ) );
#50 = ADVANCED_FACE ( 'NONE', ( #278 ), #43, .T. ) ;
#51 = CARTESIAN_POINT ( 'NONE',  ( 0.000000000000000000, 0.000000000000000000, 0.000000000000000000 ) ) ;
#52 = AXIS2_PLACEMENT_3D ( 'NONE', #48, #46, #189 ) ;
#53 = DIRECTION ( 'NONE',  ( -0.000000000000000000, -0.000000000000000000, -1.000000000000000000 ) ) ;
#54 = DIRECTION ( 'NONE',  ( -0.000000000000000000, -0.000000000000000000, -1.000000000000000000 ) ) ;
#55 = DIRECTION ( 'NONE',  ( 1.000000000000000000, 0.000000000000000000, 0.000000000000000000 ) ) ;
#56 = AXIS2_PLACEMENT_3D ( 'NONE', #25, #257, #26 ) ;
#57 = CC_DESIGN_APPROVAL ( #146, ( #36 ) ) ;
#58 = PERSON_AND_ORGANIZATION_ROLE ( 'design_supplier' ) ;
#59 = ORIENTED_EDGE ( 'NONE', *, *, #195, .F. ) ;
#60 = DATE_AND_TIME ( #102, #295 ) ;
#61 = APPROVAL_DATE_TIME ( #128, #75 ) ;
#62 = EDGE_CURVE ( 'NONE', #105, #35, #159, .T. ) ;
#63 = ORIENTED_EDGE ( 'NONE', *, *, #96, .T. ) ;
#64 = SECURITY_CLASSIFICATION ( '', '', #17 ) ;
#65 = DIRECTION ( 'NONE',  ( 1.000000000000000000, 0.000000000000000000, 0.000000000000000000 ) ) ;
#66 = DIRECTION ( 'NONE',  ( -0.000000000000000000, -0.000000000000000000, -1.000000000000000000 ) ) ;
#67 = ORIENTED_EDGE ( 'NONE', *, *, #148, .F. ) ;
#68 = APPLICATION_CONTEXT ( 'configuration controlled 3d designs of mechanical parts and assemblies' ) ;
#69 = ADVANCED_FACE ( 'NONE', ( #167 ), #89, .T. ) ;
#70 = CARTESIAN_POINT ( 'NONE',  ( 16.00000000000000000, 1.959434878635765131E-15, 325.0000000000000000 ) ) ;
#71 = DIRECTION ( 'NONE',  ( -1.000000000000000000, 0.000000000000000000, 0.000000000000000000 ) ) ;
#72 = CARTESIAN_POINT ( 'NONE',  ( 16.00000000000000000, 1.959434878635765131E-15, 325.0000000000000000 ) ) ;
#73 = AXIS2_PLACEMENT_3D ( 'NONE', #32, #28, #1 ) ;
#74 = DIRECTION ( 'NONE',  ( 0.000000000000000000, 0.000000000000000000, 1.000000000000000000 ) ) ;
#75 = APPROVAL ( #108, 'NEURÈENÝ' ) ;
#76 = CARTESIAN_POINT ( 'NONE',  ( 0.000000000000000000, 0.000000000000000000, 325.0000000000000000 ) ) ;
#77 = DIRECTION ( 'NONE',  ( -0.000000000000000000, -0.000000000000000000, -1.000000000000000000 ) ) ;
#78 = FACE_OUTER_BOUND ( 'NONE', #110, .T. ) ;
#79 = CARTESIAN_POINT ( 'NONE',  ( 0.000000000000000000, 0.000000000000000000, 325.0000000000000000 ) ) ;
#80 = CALENDAR_DATE ( 2022, 20, 6 ) ;
#81 = ORIENTED_EDGE ( 'NONE', *, *, #62, .F. ) ;
#82 =( GEOMETRIC_REPRESENTATION_CONTEXT ( 3 ) GLOBAL_UNCERTAINTY_ASSIGNED_CONTEXT ( ( #178 ) ) GLOBAL_UNIT_ASSIGNED_CONTEXT ( ( #216, #49, #3 ) ) REPRESENTATION_CONTEXT ( 'NONE', 'WORKASPACE' ) );
#83 = ORIENTED_EDGE ( 'NONE', *, *, #161, .T. ) ;
#84 = VERTEX_POINT ( 'NONE', #260 ) ;
#85 = APPROVAL_DATE_TIME ( #200, #283 ) ;
#86 = VERTEX_POINT ( 'NONE', #234 ) ;
#87 = CC_DESIGN_PERSON_AND_ORGANIZATION_ASSIGNMENT ( #250, #33, ( #36 ) ) ;
#88 = FACE_OUTER_BOUND ( 'NONE', #180, .T. ) ;
#89 = CYLINDRICAL_SURFACE ( 'NONE', #122, 20.00000000000000000 ) ;
#90 = AXIS2_PLACEMENT_3D ( 'NONE', #242, #169, #147 ) ;
#91 = FACE_BOUND ( 'NONE', #206, .T. ) ;
#92 = LINE ( 'NONE', #121, #226 ) ;
#93 = ORIENTED_EDGE ( 'NONE', *, *, #120, .T. ) ;
#94 = CARTESIAN_POINT ( 'NONE',  ( 20.00000000000000000, 2.449293598294706513E-15, 0.000000000000000000 ) ) ;
#95 = CIRCLE ( 'NONE', #202, 20.00000000000000000 ) ;
#96 = EDGE_CURVE ( 'NONE', #277, #293, #117, .T. ) ;
#97 = CARTESIAN_POINT ( 'NONE',  ( 0.000000000000000000, 0.000000000000000000, 325.0000000000000000 ) ) ;
#98 = DIRECTION ( 'NONE',  ( 0.000000000000000000, 0.000000000000000000, 1.000000000000000000 ) ) ;
#99 = LINE ( 'NONE', #101, #42 ) ;
#100 = CIRCLE ( 'NONE', #73, 20.00000000000000000 ) ;
#101 = CARTESIAN_POINT ( 'NONE',  ( 20.00000000000000000, 2.449293598294706513E-15, 10.00000000000000000 ) ) ;
#102 = CALENDAR_DATE ( 2022, 20, 6 ) ;
#103 = ADVANCED_FACE ( 'NONE', ( #22 ), #115, .T. ) ;
#104 = ORGANIZATION ( 'NEURÈENÝ', 'NEURÈENÝ', '' ) ;
#105 = VERTEX_POINT ( 'NONE', #70 ) ;
#106 = MECHANICAL_CONTEXT ( 'NONE', #8, 'mechanical' ) ;
#107 = ORIENTED_EDGE ( 'NONE', *, *, #199, .F. ) ;
#108 = APPROVAL_STATUS ( 'not_yet_approved' ) ;
#109 = CC_DESIGN_PERSON_AND_ORGANIZATION_ASSIGNMENT ( #276, #152, ( #141 ) ) ;
#110 = EDGE_LOOP ( 'NONE', ( #150, #158, #237, #142 ) ) ;
#111 = LOCAL_TIME ( 11, 16, 19.00000000000000000, #155 ) ;
#112 = CC_DESIGN_APPROVAL ( #283, ( #64 ) ) ;
#113 = ORIENTED_EDGE ( 'NONE', *, *, #148, .T. ) ;
#114 = CARTESIAN_POINT ( 'NONE',  ( 0.000000000000000000, 0.000000000000000000, 325.0000000000000000 ) ) ;
#115 = PLANE ( 'NONE',  #192 ) ;
#116 = EDGE_CURVE ( 'NONE', #35, #86, #188, .T. ) ;
#117 = CIRCLE ( 'NONE', #19, 20.00000000000000000 ) ;
#118 = LINE ( 'NONE', #212, #166 ) ;
#119 = DIRECTION ( 'NONE',  ( -0.000000000000000000, -0.000000000000000000, -1.000000000000000000 ) ) ;
#120 = EDGE_CURVE ( 'NONE', #185, #86, #118, .T. ) ;
#121 = CARTESIAN_POINT ( 'NONE',  ( -20.00000000000000000, 0.000000000000000000, 10.00000000000000000 ) ) ;
#122 = AXIS2_PLACEMENT_3D ( 'NONE', #235, #254, #135 ) ;
#123 = DIRECTION ( 'NONE',  ( -0.000000000000000000, -0.000000000000000000, -1.000000000000000000 ) ) ;
#124 = DIRECTION ( 'NONE',  ( 1.000000000000000000, 0.000000000000000000, 0.000000000000000000 ) ) ;
#125 = LOCAL_TIME ( 11, 16, 19.00000000000000000, #132 ) ;
#126 = DESIGN_CONTEXT ( 'detailed design', #68, 'design' ) ;
#127 = PERSON_AND_ORGANIZATION ( #263, #104 ) ;
#128 = DATE_AND_TIME ( #181, #125 ) ;
#129 = ORIENTED_EDGE ( 'NONE', *, *, #301, .T. ) ;
#130 = TOROIDAL_SURFACE ( 'NONE', #176, 16.19999999999999929, 0.2000000000000000111 ) ;
#131 = EDGE_LOOP ( 'NONE', ( #63, #44 ) ) ;
#132 = COORDINATED_UNIVERSAL_TIME_OFFSET ( 1, 0, .AHEAD. ) ;
#133 = AXIS2_PLACEMENT_3D ( 'NONE', #76, #29, #264 ) ;
#134 = ORIENTED_EDGE ( 'NONE', *, *, #116, .T. ) ;
#135 = DIRECTION ( 'NONE',  ( -1.000000000000000000, 0.000000000000000000, 0.000000000000000000 ) ) ;
#136 = CC_DESIGN_DATE_AND_TIME_ASSIGNMENT ( #15, #271, ( #141 ) ) ;
#137 = VERTEX_POINT ( 'NONE', #303 ) ;
#138 = AXIS2_PLACEMENT_3D ( 'NONE', #266, #54, #218 ) ;
#139 = LOCAL_TIME ( 11, 16, 19.00000000000000000, #151 ) ;
#140 = DIRECTION ( 'NONE',  ( 1.000000000000000000, 0.000000000000000000, -0.000000000000000000 ) ) ;
#141 = PRODUCT_DEFINITION ( 'NEZNÁMÝ', '', #36, #126 ) ;
#142 = ORIENTED_EDGE ( 'NONE', *, *, #217, .F. ) ;
#143 = CARTESIAN_POINT ( 'NONE',  ( -16.19999999999999929, 1.983927814618711846E-15, 9.999999999999992895 ) ) ;
#144 = CARTESIAN_POINT ( 'NONE',  ( 16.19999999999999929, 0.000000000000000000, 10.19999999999998685 ) ) ;
#145 = APPROVAL_PERSON_ORGANIZATION ( #272, #75, #179 ) ;
#146 = APPROVAL ( #149, 'NEURÈENÝ' ) ;
#147 = DIRECTION ( 'NONE',  ( 1.000000000000000000, 0.000000000000000000, 0.000000000000000000 ) ) ;
#148 = EDGE_CURVE ( 'NONE', #277, #84, #92, .T. ) ;
#149 = APPROVAL_STATUS ( 'not_yet_approved' ) ;
#150 = ORIENTED_EDGE ( 'NONE', *, *, #24, .F. ) ;
#151 = COORDINATED_UNIVERSAL_TIME_OFFSET ( 1, 0, .AHEAD. ) ;
#152 = PERSON_AND_ORGANIZATION_ROLE ( 'creator' ) ;
#153 = ADVANCED_FACE ( 'NONE', ( #88 ), #186, .F. ) ;
#154 = AXIS2_PLACEMENT_3D ( 'NONE', #114, #256, #71 ) ;
#155 = COORDINATED_UNIVERSAL_TIME_OFFSET ( 1, 0, .AHEAD. ) ;
#156 = ORIENTED_EDGE ( 'NONE', *, *, #247, .T. ) ;
#157 = PERSON_AND_ORGANIZATION_ROLE ( 'classification_officer' ) ;
#158 = ORIENTED_EDGE ( 'NONE', *, *, #116, .F. ) ;
#159 = LINE ( 'NONE', #72, #297 ) ;
#160 = CIRCLE ( 'NONE', #249, 16.19999999999999929 ) ;
#161 = EDGE_CURVE ( 'NONE', #86, #35, #207, .T. ) ;
#162 = VERTEX_POINT ( 'NONE', #143 ) ;
#163 = DIRECTION ( 'NONE',  ( 1.000000000000000000, 0.000000000000000000, 0.000000000000000000 ) ) ;
#164 = DIRECTION ( 'NONE',  ( 0.000000000000000000, 0.000000000000000000, 1.000000000000000000 ) ) ;
#165 = ADVANCED_FACE ( 'NONE', ( #78 ), #243, .F. ) ;
#166 = VECTOR ( 'NONE', #119, 1000.000000000000000 ) ;
#167 = FACE_OUTER_BOUND ( 'NONE', #223, .T. ) ;
#168 = FACE_OUTER_BOUND ( 'NONE', #187, .T. ) ;
#169 = DIRECTION ( 'NONE',  ( 0.000000000000000000, 0.000000000000000000, 1.000000000000000000 ) ) ;
#170 = EDGE_CURVE ( 'NONE', #225, #84, #100, .T. ) ;
#171 = CYLINDRICAL_SURFACE ( 'NONE', #215, 16.00000000000000000 ) ;
#172 = CC_DESIGN_APPROVAL ( #75, ( #141 ) ) ;
#173 = DIRECTION ( 'NONE',  ( 0.000000000000000000, 0.000000000000000000, 1.000000000000000000 ) ) ;
#174 = PRODUCT_DEFINITION_SHAPE ( 'NONE', 'NONE',  #141 ) ;
#175 = ORIENTED_EDGE ( 'NONE', *, *, #211, .F. ) ;
#176 = AXIS2_PLACEMENT_3D ( 'NONE', #306, #193, #124 ) ;
#177 = APPROVAL_PERSON_ORGANIZATION ( #229, #146, #34 ) ;
#178 = UNCERTAINTY_MEASURE_WITH_UNIT (LENGTH_MEASURE( 1.000000000000000082E-05 ), #216, 'distance_accuracy_value', 'NONE');
#179 = APPROVAL_ROLE ( '' ) ;
#180 = EDGE_LOOP ( 'NONE', ( #40, #190 ) ) ;
#181 = CALENDAR_DATE ( 2022, 20, 6 ) ;
#182 = ORIENTED_EDGE ( 'NONE', *, *, #217, .T. ) ;
#183 = CIRCLE ( 'NONE', #47, 16.00000000000000000 ) ;
#184 = CARTESIAN_POINT ( 'NONE',  ( 0.000000000000000000, 0.000000000000000000, 0.000000000000000000 ) ) ;
#185 = VERTEX_POINT ( 'NONE', #244 ) ;
#186 = PLANE ( 'NONE',  #30 ) ;
#187 = EDGE_LOOP ( 'NONE', ( #81, #228, #93, #83 ) ) ;
#188 = CIRCLE ( 'NONE', #56, 16.00000000000000000 ) ;
#189 = DIRECTION ( 'NONE',  ( -1.000000000000000000, 1.224646799147353947E-16, 0.000000000000000000 ) ) ;
#190 = ORIENTED_EDGE ( 'NONE', *, *, #170, .F. ) ;
#191 = FACE_OUTER_BOUND ( 'NONE', #131, .T. ) ;
#192 = AXIS2_PLACEMENT_3D ( 'NONE', #280, #164, #140 ) ;
#193 = DIRECTION ( 'NONE',  ( 0.000000000000000000, 0.000000000000000000, 1.000000000000000000 ) ) ;
#194 = DIRECTION ( 'NONE',  ( 1.000000000000000000, 0.000000000000000000, -0.000000000000000000 ) ) ;
#195 = EDGE_CURVE ( 'NONE', #35, #137, #274, .T. ) ;
#196 = DIRECTION ( 'NONE',  ( 1.000000000000000000, 0.000000000000000000, 0.000000000000000000 ) ) ;
#197 = DIRECTION ( 'NONE',  ( 1.000000000000000000, 0.000000000000000000, 0.000000000000000000 ) ) ;
#198 = CARTESIAN_POINT ( 'NONE',  ( 0.000000000000000000, 0.000000000000000000, 0.000000000000000000 ) ) ;
#199 = EDGE_CURVE ( 'NONE', #137, #162, #160, .T. ) ;
#200 = DATE_AND_TIME ( #80, #139 ) ;
#201 = EDGE_LOOP ( 'NONE', ( #175, #203, #134, #275 ) ) ;
#202 = AXIS2_PLACEMENT_3D ( 'NONE', #221, #173, #265 ) ;
#203 = ORIENTED_EDGE ( 'NONE', *, *, #62, .T. ) ;
#204 = PERSON_AND_ORGANIZATION ( #263, #104 ) ;
#205 = DATE_TIME_ROLE ( 'classification_date' ) ;
#206 = EDGE_LOOP ( 'NONE', ( #305, #182 ) ) ;
#207 = CIRCLE ( 'NONE', #90, 16.00000000000000000 ) ;
#208 = EDGE_CURVE ( 'NONE', #293, #277, #95, .T. ) ;
#209 = DIRECTION ( 'NONE',  ( 1.000000000000000000, 0.000000000000000000, -0.000000000000000000 ) ) ;
#210 = FACE_OUTER_BOUND ( 'NONE', #201, .T. ) ;
#211 = EDGE_CURVE ( 'NONE', #105, #185, #268, .T. ) ;
#212 = CARTESIAN_POINT ( 'NONE',  ( -16.00000000000000000, 0.000000000000000000, 325.0000000000000000 ) ) ;
#213 = DIRECTION ( 'NONE',  ( 0.000000000000000000, 0.000000000000000000, 1.000000000000000000 ) ) ;
#214 = CARTESIAN_POINT ( 'NONE',  ( 20.00000000000000000, 2.449293598294706513E-15, 10.00000000000000000 ) ) ;
#215 = AXIS2_PLACEMENT_3D ( 'NONE', #79, #53, #262 ) ;
#216 =( LENGTH_UNIT ( ) NAMED_UNIT ( * ) SI_UNIT ( .MILLI., .METRE. ) );
#217 = EDGE_CURVE ( 'NONE', #162, #137, #307, .T. ) ;
#218 = DIRECTION ( 'NONE',  ( 1.000000000000000000, 0.000000000000000000, 0.000000000000000000 ) ) ;
#219 = CARTESIAN_POINT ( 'NONE',  ( 0.000000000000000000, 0.000000000000000000, 10.00000000000000000 ) ) ;
#220 = AXIS2_PLACEMENT_3D ( 'NONE', #281, #66, #302 ) ;
#221 = CARTESIAN_POINT ( 'NONE',  ( 0.000000000000000000, 0.000000000000000000, 10.00000000000000000 ) ) ;
#222 = CALENDAR_DATE ( 2022, 20, 6 ) ;
#223 = EDGE_LOOP ( 'NONE', ( #298, #20, #113, #129 ) ) ;
#224 = CALENDAR_DATE ( 2022, 20, 6 ) ;
#225 = VERTEX_POINT ( 'NONE', #94 ) ;
#226 = VECTOR ( 'NONE', #299, 1000.000000000000000 ) ;
#227 = PERSON_AND_ORGANIZATION_ROLE ( 'design_owner' ) ;
#228 = ORIENTED_EDGE ( 'NONE', *, *, #247, .F. ) ;
#229 = PERSON_AND_ORGANIZATION ( #263, #104 ) ;
#230 = CIRCLE ( 'NONE', #52, 0.1999999999999987899 ) ;
#231 = APPROVAL_PERSON_ORGANIZATION ( #253, #283, #246 ) ;
#232 = PLANE ( 'NONE',  #255 ) ;
#233 = MANIFOLD_SOLID_BREP ( 'Zaoblit1', #284 ) ;
#234 = CARTESIAN_POINT ( 'NONE',  ( -16.00000000000000000, 0.000000000000000000, 10.19999999999998685 ) ) ;
#235 = CARTESIAN_POINT ( 'NONE',  ( 0.000000000000000000, 0.000000000000000000, 10.00000000000000000 ) ) ;
#236 = AXIS2_PLACEMENT_3D ( 'NONE', #241, #286, #55 ) ;
#237 = ORIENTED_EDGE ( 'NONE', *, *, #195, .T. ) ;
#238 = ADVANCED_BREP_SHAPE_REPRESENTATION ( 'e691', ( #233, #27 ), #82 ) ;
#239 = CARTESIAN_POINT ( 'NONE',  ( 16.00000000000000000, 1.959434878635765131E-15, 10.19999999999998685 ) ) ;
#240 = DIRECTION ( 'NONE',  ( 0.000000000000000000, 0.000000000000000000, -1.000000000000000000 ) ) ;
#241 = CARTESIAN_POINT ( 'NONE',  ( 0.000000000000000000, 0.000000000000000000, 10.19999999999998685 ) ) ;
#242 = CARTESIAN_POINT ( 'NONE',  ( 0.000000000000000000, 0.000000000000000000, 10.19999999999998685 ) ) ;
#243 = TOROIDAL_SURFACE ( 'NONE', #236, 16.19999999999999929, 0.2000000000000000111 ) ;
#244 = CARTESIAN_POINT ( 'NONE',  ( -16.00000000000000000, 0.000000000000000000, 325.0000000000000000 ) ) ;
#245 = COORDINATED_UNIVERSAL_TIME_OFFSET ( 1, 0, .AHEAD. ) ;
#246 = APPROVAL_ROLE ( '' ) ;
#247 = EDGE_CURVE ( 'NONE', #185, #105, #183, .T. ) ;
#248 = APPROVAL_DATE_TIME ( #294, #146 ) ;
#249 = AXIS2_PLACEMENT_3D ( 'NONE', #219, #123, #197 ) ;
#250 = PERSON_AND_ORGANIZATION ( #263, #104 ) ;
#251 = ORIENTED_EDGE ( 'NONE', *, *, #161, .F. ) ;
#252 = ADVANCED_FACE ( 'NONE', ( #7 ), #130, .F. ) ;
#253 = PERSON_AND_ORGANIZATION ( #263, #104 ) ;
#254 = DIRECTION ( 'NONE',  ( -0.000000000000000000, -0.000000000000000000, -1.000000000000000000 ) ) ;
#255 = AXIS2_PLACEMENT_3D ( 'NONE', #21, #213, #209 ) ;
#256 = DIRECTION ( 'NONE',  ( -0.000000000000000000, -0.000000000000000000, -1.000000000000000000 ) ) ;
#257 = DIRECTION ( 'NONE',  ( 0.000000000000000000, 0.000000000000000000, 1.000000000000000000 ) ) ;
#258 = CC_DESIGN_DATE_AND_TIME_ASSIGNMENT ( #60, #205, ( #64 ) ) ;
#259 = DIRECTION ( 'NONE',  ( 0.000000000000000000, 0.000000000000000000, 1.000000000000000000 ) ) ;
#260 = CARTESIAN_POINT ( 'NONE',  ( -20.00000000000000000, 0.000000000000000000, 0.000000000000000000 ) ) ;
#261 = CC_DESIGN_PERSON_AND_ORGANIZATION_ASSIGNMENT ( #9, #157, ( #64 ) ) ;
#262 = DIRECTION ( 'NONE',  ( -1.000000000000000000, 0.000000000000000000, 0.000000000000000000 ) ) ;
#263 = PERSON ( 'NEURÈENÝ', 'NEURÈENÝ', 'NEURÈENÝ', ('NEURÈENÝ'), ('NEURÈENÝ'), ('NEURÈENÝ') ) ;
#264 = DIRECTION ( 'NONE',  ( 1.000000000000000000, 0.000000000000000000, 0.000000000000000000 ) ) ;
#265 = DIRECTION ( 'NONE',  ( 1.000000000000000000, 0.000000000000000000, 0.000000000000000000 ) ) ;
#266 = CARTESIAN_POINT ( 'NONE',  ( 0.000000000000000000, 0.000000000000000000, 10.00000000000000000 ) ) ;
#267 = DIRECTION ( 'NONE',  ( 0.000000000000000000, 0.000000000000000000, 1.000000000000000000 ) ) ;
#268 = CIRCLE ( 'NONE', #133, 16.00000000000000000 ) ;
#269 = COORDINATED_UNIVERSAL_TIME_OFFSET ( 1, 0, .AHEAD. ) ;
#270 = EDGE_CURVE ( 'NONE', #293, #225, #99, .T. ) ;
#271 = DATE_TIME_ROLE ( 'creation_date' ) ;
#272 = PERSON_AND_ORGANIZATION ( #263, #104 ) ;
#273 = DIRECTION ( 'NONE',  ( 0.000000000000000000, 0.000000000000000000, 1.000000000000000000 ) ) ;
#274 = CIRCLE ( 'NONE', #4, 0.2000000000000005107 ) ;
#275 = ORIENTED_EDGE ( 'NONE', *, *, #120, .F. ) ;
#276 = PERSON_AND_ORGANIZATION ( #263, #104 ) ;
#277 = VERTEX_POINT ( 'NONE', #285 ) ;
#278 = FACE_OUTER_BOUND ( 'NONE', #14, .T. ) ;
#279 = ORIENTED_EDGE ( 'NONE', *, *, #24, .T. ) ;
#280 = CARTESIAN_POINT ( 'NONE',  ( 0.000000000000000000, 0.000000000000000000, 325.0000000000000000 ) ) ;
#281 = CARTESIAN_POINT ( 'NONE',  ( 0.000000000000000000, 0.000000000000000000, 10.00000000000000000 ) ) ;
#282 = CYLINDRICAL_SURFACE ( 'NONE', #154, 16.00000000000000000 ) ;
#283 = APPROVAL ( #296, 'NEURÈENÝ' ) ;
#284 = CLOSED_SHELL ( 'NONE', ( #252, #41, #50, #69, #10, #153, #304, #103, #165 ) ) ;
#285 = CARTESIAN_POINT ( 'NONE',  ( -20.00000000000000000, 0.000000000000000000, 10.00000000000000000 ) ) ;
#286 = DIRECTION ( 'NONE',  ( 0.000000000000000000, 0.000000000000000000, 1.000000000000000000 ) ) ;
#287 = CIRCLE ( 'NONE', #292, 20.00000000000000000 ) ;
#288 = DIRECTION ( 'NONE',  ( 0.000000000000000000, -1.000000000000000000, 0.000000000000000000 ) ) ;
#289 = DIRECTION ( 'NONE',  ( 1.000000000000000000, 0.000000000000000000, 0.000000000000000000 ) ) ;
#290 = SHAPE_DEFINITION_REPRESENTATION ( #174, #238 ) ;
#291 = CC_DESIGN_PERSON_AND_ORGANIZATION_ASSIGNMENT ( #127, #227, ( #5 ) ) ;
#292 = AXIS2_PLACEMENT_3D ( 'NONE', #198, #74, #289 ) ;
#293 = VERTEX_POINT ( 'NONE', #214 ) ;
#294 = DATE_AND_TIME ( #224, #111 ) ;
#295 = LOCAL_TIME ( 11, 16, 19.00000000000000000, #245 ) ;
#296 = APPROVAL_STATUS ( 'not_yet_approved' ) ;
#297 = VECTOR ( 'NONE', #300, 1000.000000000000000 ) ;
#298 = ORIENTED_EDGE ( 'NONE', *, *, #270, .F. ) ;
#299 = DIRECTION ( 'NONE',  ( -0.000000000000000000, -0.000000000000000000, -1.000000000000000000 ) ) ;
#300 = DIRECTION ( 'NONE',  ( -0.000000000000000000, -0.000000000000000000, -1.000000000000000000 ) ) ;
#301 = EDGE_CURVE ( 'NONE', #84, #225, #287, .T. ) ;
#302 = DIRECTION ( 'NONE',  ( -1.000000000000000000, 0.000000000000000000, 0.000000000000000000 ) ) ;
#303 = CARTESIAN_POINT ( 'NONE',  ( 16.19999999999999929, 0.000000000000000000, 9.999999999999992895 ) ) ;
#304 = ADVANCED_FACE ( 'NONE', ( #168 ), #171, .T. ) ;
#305 = ORIENTED_EDGE ( 'NONE', *, *, #199, .T. ) ;
#306 = CARTESIAN_POINT ( 'NONE',  ( 0.000000000000000000, 0.000000000000000000, 10.19999999999998685 ) ) ;
#307 = CIRCLE ( 'NONE', #138, 16.19999999999999929 ) ;
ENDSEC;
END-ISO-10303-21;
