ISO-10303-21;
HEADER;
FILE_DESCRIPTION (( 'STEP AP203' ),
    '1' );
FILE_NAME ('093e.STEP',
    '2022-06-20T10:28:39',
    ( '' ),
    ( '' ),
    'SwSTEP 2.0',
    'SolidWorks 2019',
    '' );
FILE_SCHEMA (( 'CONFIG_CONTROL_DESIGN' ));
ENDSEC;

DATA;
#1 = SECURITY_CLASSIFICATION_LEVEL ( 'unclassified' ) ;
#2 = DIRECTION ( 'NONE',  ( 1.000000000000000000, 0.000000000000000000, 0.000000000000000000 ) ) ;
#3 = APPLICATION_CONTEXT ( 'configuration controlled 3d designs of mechanical parts and assemblies' ) ;
#4 = DATE_AND_TIME ( #240, #96 ) ;
#5 = ORIENTED_EDGE ( 'NONE', *, *, #35, .F. ) ;
#6 = FACE_OUTER_BOUND ( 'NONE', #248, .T. ) ;
#7 = FACE_OUTER_BOUND ( 'NONE', #25, .T. ) ;
#8 = ORIENTED_EDGE ( 'NONE', *, *, #98, .T. ) ;
#9 = EDGE_CURVE ( 'NONE', #223, #110, #203, .T. ) ;
#10 = CIRCLE ( 'NONE', #49, 0.5000000000000000000 ) ;
#11 = CARTESIAN_POINT ( 'NONE',  ( 0.000000000000000000, 0.000000000000000000, 0.000000000000000000 ) ) ;
#12 = EDGE_CURVE ( 'NONE', #39, #110, #196, .T. ) ;
#13 = DIRECTION ( 'NONE',  ( 0.000000000000000000, 0.000000000000000000, 1.000000000000000000 ) ) ;
#14 = APPROVAL ( #47, 'NEURÈENÝ' ) ;
#15 = DIRECTION ( 'NONE',  ( -0.000000000000000000, -0.000000000000000000, -1.000000000000000000 ) ) ;
#16 = COORDINATED_UNIVERSAL_TIME_OFFSET ( 1, 0, .AHEAD. ) ;
#17 = CARTESIAN_POINT ( 'NONE',  ( -1.250000000000000000, 0.000000000000000000, 1.199999999999999956 ) ) ;
#18 = DIRECTION ( 'NONE',  ( 1.000000000000000000, 0.000000000000000000, 0.000000000000000000 ) ) ;
#19 = APPROVAL_DATE_TIME ( #4, #204 ) ;
#20 = ADVANCED_BREP_SHAPE_REPRESENTATION ( '093e', ( #230, #63 ), #31 ) ;
#21 = CARTESIAN_POINT ( 'NONE',  ( 0.000000000000000000, 0.000000000000000000, 1.399999999999998579 ) ) ;
#22 = CARTESIAN_POINT ( 'NONE',  ( 0.000000000000000000, 0.000000000000000000, 101.2000000000000171 ) ) ;
#23 = CARTESIAN_POINT ( 'NONE',  ( 0.000000000000000000, 0.000000000000000000, 1.199999999999999956 ) ) ;
#24 = DIRECTION ( 'NONE',  ( 0.000000000000000000, 0.000000000000000000, 1.000000000000000000 ) ) ;
#25 = EDGE_LOOP ( 'NONE', ( #194, #229, #239, #200 ) ) ;
#26 = CYLINDRICAL_SURFACE ( 'NONE', #126, 1.250000000000000000 ) ;
#27 = VERTEX_POINT ( 'NONE', #103 ) ;
#28 = DIRECTION ( 'NONE',  ( -1.000000000000000000, 1.224646799147352714E-16, 0.000000000000000000 ) ) ;
#29 = EDGE_CURVE ( 'NONE', #27, #32, #256, .T. ) ;
#30 = CARTESIAN_POINT ( 'NONE',  ( 0.000000000000000000, 0.000000000000000000, 1.199999999999999956 ) ) ;
#31 =( GEOMETRIC_REPRESENTATION_CONTEXT ( 3 ) GLOBAL_UNCERTAINTY_ASSIGNED_CONTEXT ( ( #210 ) ) GLOBAL_UNIT_ASSIGNED_CONTEXT ( ( #280, #44, #222 ) ) REPRESENTATION_CONTEXT ( 'NONE', 'WORKASPACE' ) );
#32 = VERTEX_POINT ( 'NONE', #154 ) ;
#33 = APPROVAL_DATE_TIME ( #218, #14 ) ;
#34 = ORIENTED_EDGE ( 'NONE', *, *, #9, .T. ) ;
#35 = EDGE_CURVE ( 'NONE', #133, #27, #305, .T. ) ;
#36 = CALENDAR_DATE ( 2022, 20, 6 ) ;
#37 = AXIS2_PLACEMENT_3D ( 'NONE', #243, #184, #107 ) ;
#38 = ORGANIZATION ( 'NEURÈENÝ', 'NEURÈENÝ', '' ) ;
#39 = VERTEX_POINT ( 'NONE', #258 ) ;
#40 = AXIS2_PLACEMENT_3D ( 'NONE', #81, #15, #65 ) ;
#41 = CARTESIAN_POINT ( 'NONE',  ( 0.000000000000000000, 0.000000000000000000, 101.2000000000000171 ) ) ;
#42 = PRODUCT_DEFINITION ( 'NEZNÁMÝ', '', #211, #112 ) ;
#43 = CALENDAR_DATE ( 2022, 20, 6 ) ;
#44 =( NAMED_UNIT ( * ) PLANE_ANGLE_UNIT ( ) SI_UNIT ( $, .RADIAN. ) );
#45 = CARTESIAN_POINT ( 'NONE',  ( -0.6999999999999999556, 8.572527594031473190E-17, 1.199999999999999289 ) ) ;
#46 = DIRECTION ( 'NONE',  ( -0.000000000000000000, -0.000000000000000000, -1.000000000000000000 ) ) ;
#47 = APPROVAL_STATUS ( 'not_yet_approved' ) ;
#48 = DIRECTION ( 'NONE',  ( 1.000000000000000000, 0.000000000000000000, 0.000000000000000000 ) ) ;
#49 = AXIS2_PLACEMENT_3D ( 'NONE', #41, #13, #253 ) ;
#50 = FACE_OUTER_BOUND ( 'NONE', #233, .T. ) ;
#51 = EDGE_CURVE ( 'NONE', #27, #90, #67, .T. ) ;
#52 = APPROVAL_ROLE ( '' ) ;
#53 = EDGE_LOOP ( 'NONE', ( #242, #273, #152, #292 ) ) ;
#54 = ORIENTED_EDGE ( 'NONE', *, *, #268, .F. ) ;
#55 = CC_DESIGN_APPROVAL ( #304, ( #42 ) ) ;
#56 = CYLINDRICAL_SURFACE ( 'NONE', #40, 1.250000000000000000 ) ;
#57 = CC_DESIGN_PERSON_AND_ORGANIZATION_ASSIGNMENT ( #128, #249, ( #136 ) ) ;
#58 = DIRECTION ( 'NONE',  ( 0.000000000000000000, 0.000000000000000000, 1.000000000000000000 ) ) ;
#59 = PERSON_AND_ORGANIZATION ( #291, #38 ) ;
#60 = CARTESIAN_POINT ( 'NONE',  ( 0.000000000000000000, 0.000000000000000000, 101.2000000000000171 ) ) ;
#61 = AXIS2_PLACEMENT_3D ( 'NONE', #69, #212, #48 ) ;
#62 = CARTESIAN_POINT ( 'NONE',  ( 0.000000000000000000, 0.000000000000000000, 101.2000000000000171 ) ) ;
#63 = AXIS2_PLACEMENT_3D ( 'NONE', #11, #64, #176 ) ;
#64 = DIRECTION ( 'NONE',  ( 0.000000000000000000, 0.000000000000000000, 1.000000000000000000 ) ) ;
#65 = DIRECTION ( 'NONE',  ( -1.000000000000000000, 0.000000000000000000, 0.000000000000000000 ) ) ;
#66 = VECTOR ( 'NONE', #300, 1000.000000000000000 ) ;
#67 = CIRCLE ( 'NONE', #195, 0.5000000000000000000 ) ;
#68 = PERSON_AND_ORGANIZATION ( #291, #38 ) ;
#69 = CARTESIAN_POINT ( 'NONE',  ( 0.000000000000000000, 0.000000000000000000, 0.000000000000000000 ) ) ;
#70 = PERSON_AND_ORGANIZATION_ROLE ( 'classification_officer' ) ;
#71 = CARTESIAN_POINT ( 'NONE',  ( 0.5000000000000000000, 6.123233995736766036E-17, 101.2000000000000171 ) ) ;
#72 = ORIENTED_EDGE ( 'NONE', *, *, #9, .F. ) ;
#73 = PLANE ( 'NONE',  #247 ) ;
#74 = APPROVAL_PERSON_ORGANIZATION ( #301, #304, #151 ) ;
#75 = ADVANCED_FACE ( 'NONE', ( #177 ), #150, .T. ) ;
#76 = VERTEX_POINT ( 'NONE', #45 ) ;
#77 = CIRCLE ( 'NONE', #102, 0.6999999999999999556 ) ;
#78 = ORIENTED_EDGE ( 'NONE', *, *, #113, .T. ) ;
#79 = ORIENTED_EDGE ( 'NONE', *, *, #144, .T. ) ;
#80 = EDGE_CURVE ( 'NONE', #299, #39, #307, .T. ) ;
#81 = CARTESIAN_POINT ( 'NONE',  ( 0.000000000000000000, 0.000000000000000000, 1.199999999999999956 ) ) ;
#82 = CARTESIAN_POINT ( 'NONE',  ( 0.5000000000000000000, 6.123233995736766036E-17, 101.2000000000000171 ) ) ;
#83 = EDGE_CURVE ( 'NONE', #119, #133, #99, .T. ) ;
#84 = DIRECTION ( 'NONE',  ( 1.000000000000000000, 0.000000000000000000, 0.000000000000000000 ) ) ;
#85 = PLANE ( 'NONE',  #138 ) ;
#86 = DATE_TIME_ROLE ( 'classification_date' ) ;
#87 = CARTESIAN_POINT ( 'NONE',  ( 0.000000000000000000, 0.000000000000000000, 1.199999999999999956 ) ) ;
#88 = CC_DESIGN_PERSON_AND_ORGANIZATION_ASSIGNMENT ( #59, #228, ( #42 ) ) ;
#89 = CARTESIAN_POINT ( 'NONE',  ( 0.000000000000000000, 0.000000000000000000, 1.199999999999999956 ) ) ;
#90 = VERTEX_POINT ( 'NONE', #303 ) ;
#91 = PERSON_AND_ORGANIZATION ( #291, #38 ) ;
#92 = DIRECTION ( 'NONE',  ( 0.000000000000000000, 0.000000000000000000, 1.000000000000000000 ) ) ;
#93 = ORIENTED_EDGE ( 'NONE', *, *, #217, .F. ) ;
#94 = PLANE ( 'NONE',  #293 ) ;
#95 = FACE_OUTER_BOUND ( 'NONE', #287, .T. ) ;
#96 = LOCAL_TIME ( 12, 28, 39.00000000000000000, #108 ) ;
#97 = TOROIDAL_SURFACE ( 'NONE', #216, 0.6999999999999999556, 0.2000000000000000111 ) ;
#98 = EDGE_CURVE ( 'NONE', #32, #76, #224, .T. ) ;
#99 = CIRCLE ( 'NONE', #282, 0.5000000000000000000 ) ;
#100 = EDGE_LOOP ( 'NONE', ( #145, #281 ) ) ;
#101 = APPROVAL_DATE_TIME ( #226, #304 ) ;
#102 = AXIS2_PLACEMENT_3D ( 'NONE', #89, #186, #2 ) ;
#103 = CARTESIAN_POINT ( 'NONE',  ( 0.5000000000000000000, 6.123233995736766036E-17, 1.399999999999998579 ) ) ;
#104 = ADVANCED_FACE ( 'NONE', ( #182 ), #56, .T. ) ;
#105 = MECHANICAL_CONTEXT ( 'NONE', #189, 'mechanical' ) ;
#106 = DIRECTION ( 'NONE',  ( -1.000000000000000000, 0.000000000000000000, 0.000000000000000000 ) ) ;
#107 = DIRECTION ( 'NONE',  ( -1.000000000000000000, 0.000000000000000000, 0.000000000000000000 ) ) ;
#108 = COORDINATED_UNIVERSAL_TIME_OFFSET ( 1, 0, .AHEAD. ) ;
#109 = DIRECTION ( 'NONE',  ( 0.000000000000000000, 0.000000000000000000, 1.000000000000000000 ) ) ;
#110 = VERTEX_POINT ( 'NONE', #276 ) ;
#111 = DATE_AND_TIME ( #36, #181 ) ;
#112 = DESIGN_CONTEXT ( 'detailed design', #3, 'design' ) ;
#113 = EDGE_CURVE ( 'NONE', #133, #119, #10, .T. ) ;
#114 = ORIENTED_EDGE ( 'NONE', *, *, #98, .F. ) ;
#115 = VECTOR ( 'NONE', #178, 1000.000000000000000 ) ;
#116 = FACE_BOUND ( 'NONE', #270, .T. ) ;
#117 = CARTESIAN_POINT ( 'NONE',  ( 0.000000000000000000, 0.000000000000000000, 1.399999999999998579 ) ) ;
#118 = CC_DESIGN_DATE_AND_TIME_ASSIGNMENT ( #257, #86, ( #164 ) ) ;
#119 = VERTEX_POINT ( 'NONE', #131 ) ;
#120 = CC_DESIGN_SECURITY_CLASSIFICATION ( #164, ( #211 ) ) ;
#121 = ADVANCED_FACE ( 'NONE', ( #132 ), #85, .T. ) ;
#122 = ORIENTED_EDGE ( 'NONE', *, *, #144, .F. ) ;
#123 = ADVANCED_FACE ( 'NONE', ( #262 ), #73, .F. ) ;
#124 = EDGE_LOOP ( 'NONE', ( #122, #289, #264, #72 ) ) ;
#125 = ORIENTED_EDGE ( 'NONE', *, *, #29, .F. ) ;
#126 = AXIS2_PLACEMENT_3D ( 'NONE', #165, #288, #263 ) ;
#127 = CC_DESIGN_PERSON_AND_ORGANIZATION_ASSIGNMENT ( #208, #185, ( #211 ) ) ;
#128 = PERSON_AND_ORGANIZATION ( #291, #38 ) ;
#129 = ORIENTED_EDGE ( 'NONE', *, *, #199, .T. ) ;
#130 = LOCAL_TIME ( 12, 28, 39.00000000000000000, #232 ) ;
#131 = CARTESIAN_POINT ( 'NONE',  ( -0.5000000000000000000, 0.000000000000000000, 101.2000000000000171 ) ) ;
#132 = FACE_OUTER_BOUND ( 'NONE', #139, .T. ) ;
#133 = VERTEX_POINT ( 'NONE', #71 ) ;
#134 = PERSON_AND_ORGANIZATION ( #291, #38 ) ;
#135 = LOCAL_TIME ( 12, 28, 39.00000000000000000, #183 ) ;
#136 = PRODUCT ( '093e', '093e', '', ( #105 ) ) ;
#137 = DIRECTION ( 'NONE',  ( 0.000000000000000000, 0.000000000000000000, 1.000000000000000000 ) ) ;
#138 = AXIS2_PLACEMENT_3D ( 'NONE', #22, #92, #238 ) ;
#139 = EDGE_LOOP ( 'NONE', ( #167, #78 ) ) ;
#140 = CYLINDRICAL_SURFACE ( 'NONE', #37, 0.5000000000000000000 ) ;
#141 = DIRECTION ( 'NONE',  ( 1.000000000000000000, 0.000000000000000000, 0.000000000000000000 ) ) ;
#142 = EDGE_LOOP ( 'NONE', ( #155, #93, #34, #187 ) ) ;
#143 = CALENDAR_DATE ( 2022, 20, 6 ) ;
#144 = EDGE_CURVE ( 'NONE', #299, #223, #269, .T. ) ;
#145 = ORIENTED_EDGE ( 'NONE', *, *, #214, .F. ) ;
#146 = DIRECTION ( 'NONE',  ( 1.224646799147353207E-16, 1.000000000000000000, -0.000000000000000000 ) ) ;
#147 = ORIENTED_EDGE ( 'NONE', *, *, #83, .F. ) ;
#148 = PRODUCT_RELATED_PRODUCT_CATEGORY ( 'detail', '', ( #136 ) ) ;
#149 = APPROVAL_PERSON_ORGANIZATION ( #134, #204, #234 ) ;
#150 = CYLINDRICAL_SURFACE ( 'NONE', #244, 0.5000000000000000000 ) ;
#151 = APPROVAL_ROLE ( '' ) ;
#152 = ORIENTED_EDGE ( 'NONE', *, *, #51, .T. ) ;
#153 = APPLICATION_PROTOCOL_DEFINITION ( 'international standard', 'config_control_design', 1994, #3 ) ;
#154 = CARTESIAN_POINT ( 'NONE',  ( 0.6999999999999999556, 0.000000000000000000, 1.199999999999999289 ) ) ;
#155 = ORIENTED_EDGE ( 'NONE', *, *, #80, .F. ) ;
#156 = AXIS2_PLACEMENT_3D ( 'NONE', #157, #173, #201 ) ;
#157 = CARTESIAN_POINT ( 'NONE',  ( 0.6999999999999999556, 0.000000000000000000, 1.399999999999998579 ) ) ;
#158 = ADVANCED_FACE ( 'NONE', ( #207 ), #26, .T. ) ;
#159 = LINE ( 'NONE', #209, #205 ) ;
#160 = CALENDAR_DATE ( 2022, 20, 6 ) ;
#161 = PRODUCT_DEFINITION_SHAPE ( 'NONE', 'NONE',  #42 ) ;
#162 = ORIENTED_EDGE ( 'NONE', *, *, #268, .T. ) ;
#163 = SHAPE_DEFINITION_REPRESENTATION ( #161, #20 ) ;
#164 = SECURITY_CLASSIFICATION ( '', '', #1 ) ;
#165 = CARTESIAN_POINT ( 'NONE',  ( 0.000000000000000000, 0.000000000000000000, 1.199999999999999956 ) ) ;
#166 = AXIS2_PLACEMENT_3D ( 'NONE', #251, #302, #84 ) ;
#167 = ORIENTED_EDGE ( 'NONE', *, *, #83, .T. ) ;
#168 = CARTESIAN_POINT ( 'NONE',  ( 0.000000000000000000, 0.000000000000000000, 1.399999999999998579 ) ) ;
#169 = CC_DESIGN_DATE_AND_TIME_ASSIGNMENT ( #111, #206, ( #42 ) ) ;
#170 = ORIENTED_EDGE ( 'NONE', *, *, #283, .T. ) ;
#171 = ADVANCED_FACE ( 'NONE', ( #50 ), #140, .T. ) ;
#172 = APPROVAL_STATUS ( 'not_yet_approved' ) ;
#173 = DIRECTION ( 'NONE',  ( 0.000000000000000000, -1.000000000000000000, 0.000000000000000000 ) ) ;
#174 = CC_DESIGN_PERSON_AND_ORGANIZATION_ASSIGNMENT ( #91, #259, ( #211 ) ) ;
#175 = CLOSED_SHELL ( 'NONE', ( #260, #75, #158, #104, #290, #123, #171, #121, #245 ) ) ;
#176 = DIRECTION ( 'NONE',  ( 1.000000000000000000, 0.000000000000000000, 0.000000000000000000 ) ) ;
#177 = FACE_OUTER_BOUND ( 'NONE', #53, .T. ) ;
#178 = DIRECTION ( 'NONE',  ( -0.000000000000000000, -0.000000000000000000, -1.000000000000000000 ) ) ;
#179 = AXIS2_PLACEMENT_3D ( 'NONE', #271, #272, #141 ) ;
#180 = CARTESIAN_POINT ( 'NONE',  ( 1.250000000000000000, 1.530808498934191571E-16, 1.199999999999999956 ) ) ;
#181 = LOCAL_TIME ( 12, 28, 39.00000000000000000, #16 ) ;
#182 = FACE_OUTER_BOUND ( 'NONE', #142, .T. ) ;
#183 = COORDINATED_UNIVERSAL_TIME_OFFSET ( 1, 0, .AHEAD. ) ;
#184 = DIRECTION ( 'NONE',  ( -0.000000000000000000, -0.000000000000000000, -1.000000000000000000 ) ) ;
#185 = PERSON_AND_ORGANIZATION_ROLE ( 'design_supplier' ) ;
#186 = DIRECTION ( 'NONE',  ( -0.000000000000000000, -0.000000000000000000, -1.000000000000000000 ) ) ;
#187 = ORIENTED_EDGE ( 'NONE', *, *, #214, .T. ) ;
#188 = APPROVAL_STATUS ( 'not_yet_approved' ) ;
#189 = APPLICATION_CONTEXT ( 'configuration controlled 3d designs of mechanical parts and assemblies' ) ;
#190 = AXIS2_PLACEMENT_3D ( 'NONE', #193, #146, #28 ) ;
#191 = AXIS2_PLACEMENT_3D ( 'NONE', #87, #24, #286 ) ;
#192 = CC_DESIGN_APPROVAL ( #14, ( #164 ) ) ;
#193 = CARTESIAN_POINT ( 'NONE',  ( -0.6999999999999999556, 8.572527594031471957E-17, 1.399999999999998579 ) ) ;
#194 = ORIENTED_EDGE ( 'NONE', *, *, #283, .F. ) ;
#195 = AXIS2_PLACEMENT_3D ( 'NONE', #21, #278, #227 ) ;
#196 = CIRCLE ( 'NONE', #231, 1.250000000000000000 ) ;
#197 = DIRECTION ( 'NONE',  ( 1.000000000000000000, 0.000000000000000000, -0.000000000000000000 ) ) ;
#198 = CARTESIAN_POINT ( 'NONE',  ( 1.250000000000000000, 1.530808498934191571E-16, 1.199999999999999956 ) ) ;
#199 = EDGE_CURVE ( 'NONE', #76, #32, #77, .T. ) ;
#200 = ORIENTED_EDGE ( 'NONE', *, *, #199, .F. ) ;
#201 = DIRECTION ( 'NONE',  ( 0.000000000000000000, 0.000000000000000000, -1.000000000000000000 ) ) ;
#202 = EDGE_CURVE ( 'NONE', #119, #90, #159, .T. ) ;
#203 = LINE ( 'NONE', #17, #261 ) ;
#204 = APPROVAL ( #188, 'NEURÈENÝ' ) ;
#205 = VECTOR ( 'NONE', #46, 1000.000000000000000 ) ;
#206 = DATE_TIME_ROLE ( 'creation_date' ) ;
#207 = FACE_OUTER_BOUND ( 'NONE', #124, .T. ) ;
#208 = PERSON_AND_ORGANIZATION ( #291, #38 ) ;
#209 = CARTESIAN_POINT ( 'NONE',  ( -0.5000000000000000000, 0.000000000000000000, 101.2000000000000171 ) ) ;
#210 = UNCERTAINTY_MEASURE_WITH_UNIT (LENGTH_MEASURE( 1.000000000000000082E-05 ), #280, 'distance_accuracy_value', 'NONE');
#211 = PRODUCT_DEFINITION_FORMATION_WITH_SPECIFIED_SOURCE ( 'LIBOVOLNÝ', '', #136, .NOT_KNOWN. ) ;
#212 = DIRECTION ( 'NONE',  ( 0.000000000000000000, 0.000000000000000000, 1.000000000000000000 ) ) ;
#213 = ORIENTED_EDGE ( 'NONE', *, *, #202, .T. ) ;
#214 = EDGE_CURVE ( 'NONE', #110, #39, #284, .T. ) ;
#215 = DIRECTION ( 'NONE',  ( 0.000000000000000000, 0.000000000000000000, 1.000000000000000000 ) ) ;
#216 = AXIS2_PLACEMENT_3D ( 'NONE', #117, #296, #297 ) ;
#217 = EDGE_CURVE ( 'NONE', #223, #299, #298, .T. ) ;
#218 = DATE_AND_TIME ( #143, #294 ) ;
#219 = DIRECTION ( 'NONE',  ( 1.000000000000000000, 0.000000000000000000, 0.000000000000000000 ) ) ;
#220 = ORIENTED_EDGE ( 'NONE', *, *, #217, .T. ) ;
#221 = CIRCLE ( 'NONE', #236, 0.5000000000000000000 ) ;
#222 =( NAMED_UNIT ( * ) SI_UNIT ( $, .STERADIAN. ) SOLID_ANGLE_UNIT ( ) );
#223 = VERTEX_POINT ( 'NONE', #295 ) ;
#224 = CIRCLE ( 'NONE', #166, 0.6999999999999999556 ) ;
#225 = DIRECTION ( 'NONE',  ( -0.000000000000000000, -0.000000000000000000, -1.000000000000000000 ) ) ;
#226 = DATE_AND_TIME ( #43, #130 ) ;
#227 = DIRECTION ( 'NONE',  ( 1.000000000000000000, 0.000000000000000000, 0.000000000000000000 ) ) ;
#228 = PERSON_AND_ORGANIZATION_ROLE ( 'creator' ) ;
#229 = ORIENTED_EDGE ( 'NONE', *, *, #51, .F. ) ;
#230 = MANIFOLD_SOLID_BREP ( 'Zaoblit1', #175 ) ;
#231 = AXIS2_PLACEMENT_3D ( 'NONE', #274, #252, #18 ) ;
#232 = COORDINATED_UNIVERSAL_TIME_OFFSET ( 1, 0, .AHEAD. ) ;
#233 = EDGE_LOOP ( 'NONE', ( #5, #147, #213, #162 ) ) ;
#234 = APPROVAL_ROLE ( '' ) ;
#235 = CC_DESIGN_APPROVAL ( #204, ( #211 ) ) ;
#236 = AXIS2_PLACEMENT_3D ( 'NONE', #168, #246, #219 ) ;
#237 = DIRECTION ( 'NONE',  ( 1.000000000000000000, 0.000000000000000000, -0.000000000000000000 ) ) ;
#238 = DIRECTION ( 'NONE',  ( 1.000000000000000000, 0.000000000000000000, -0.000000000000000000 ) ) ;
#239 = ORIENTED_EDGE ( 'NONE', *, *, #29, .T. ) ;
#240 = CALENDAR_DATE ( 2022, 20, 6 ) ;
#241 = AXIS2_PLACEMENT_3D ( 'NONE', #23, #109, #267 ) ;
#242 = ORIENTED_EDGE ( 'NONE', *, *, #113, .F. ) ;
#243 = CARTESIAN_POINT ( 'NONE',  ( 0.000000000000000000, 0.000000000000000000, 101.2000000000000171 ) ) ;
#244 = AXIS2_PLACEMENT_3D ( 'NONE', #62, #255, #106 ) ;
#245 = ADVANCED_FACE ( 'NONE', ( #7 ), #97, .F. ) ;
#246 = DIRECTION ( 'NONE',  ( 0.000000000000000000, 0.000000000000000000, 1.000000000000000000 ) ) ;
#247 = AXIS2_PLACEMENT_3D ( 'NONE', #265, #137, #237 ) ;
#248 = EDGE_LOOP ( 'NONE', ( #220, #79 ) ) ;
#249 = PERSON_AND_ORGANIZATION_ROLE ( 'design_owner' ) ;
#250 = CIRCLE ( 'NONE', #190, 0.1999999999999999833 ) ;
#251 = CARTESIAN_POINT ( 'NONE',  ( 0.000000000000000000, 0.000000000000000000, 1.199999999999999956 ) ) ;
#252 = DIRECTION ( 'NONE',  ( 0.000000000000000000, 0.000000000000000000, 1.000000000000000000 ) ) ;
#253 = DIRECTION ( 'NONE',  ( 1.000000000000000000, 0.000000000000000000, 0.000000000000000000 ) ) ;
#254 = CC_DESIGN_PERSON_AND_ORGANIZATION_ASSIGNMENT ( #285, #70, ( #164 ) ) ;
#255 = DIRECTION ( 'NONE',  ( -0.000000000000000000, -0.000000000000000000, -1.000000000000000000 ) ) ;
#256 = CIRCLE ( 'NONE', #156, 0.2000000000000000944 ) ;
#257 = DATE_AND_TIME ( #160, #135 ) ;
#258 = CARTESIAN_POINT ( 'NONE',  ( 1.250000000000000000, 1.530808498934191571E-16, 0.000000000000000000 ) ) ;
#259 = PERSON_AND_ORGANIZATION_ROLE ( 'creator' ) ;
#260 = ADVANCED_FACE ( 'NONE', ( #95 ), #279, .F. ) ;
#261 = VECTOR ( 'NONE', #225, 1000.000000000000000 ) ;
#262 = FACE_OUTER_BOUND ( 'NONE', #100, .T. ) ;
#263 = DIRECTION ( 'NONE',  ( -1.000000000000000000, 0.000000000000000000, 0.000000000000000000 ) ) ;
#264 = ORIENTED_EDGE ( 'NONE', *, *, #12, .T. ) ;
#265 = CARTESIAN_POINT ( 'NONE',  ( 0.000000000000000000, 0.000000000000000000, 0.000000000000000000 ) ) ;
#266 = COORDINATED_UNIVERSAL_TIME_OFFSET ( 1, 0, .AHEAD. ) ;
#267 = DIRECTION ( 'NONE',  ( 1.000000000000000000, 0.000000000000000000, 0.000000000000000000 ) ) ;
#268 = EDGE_CURVE ( 'NONE', #90, #27, #221, .T. ) ;
#269 = CIRCLE ( 'NONE', #191, 1.250000000000000000 ) ;
#270 = EDGE_LOOP ( 'NONE', ( #8, #129 ) ) ;
#271 = CARTESIAN_POINT ( 'NONE',  ( 0.000000000000000000, 0.000000000000000000, 1.399999999999998579 ) ) ;
#272 = DIRECTION ( 'NONE',  ( 0.000000000000000000, 0.000000000000000000, 1.000000000000000000 ) ) ;
#273 = ORIENTED_EDGE ( 'NONE', *, *, #35, .T. ) ;
#274 = CARTESIAN_POINT ( 'NONE',  ( 0.000000000000000000, 0.000000000000000000, 0.000000000000000000 ) ) ;
#275 = DIRECTION ( 'NONE',  ( 1.000000000000000000, 0.000000000000000000, 0.000000000000000000 ) ) ;
#276 = CARTESIAN_POINT ( 'NONE',  ( -1.250000000000000000, 0.000000000000000000, 0.000000000000000000 ) ) ;
#277 = APPROVAL_PERSON_ORGANIZATION ( #68, #14, #52 ) ;
#278 = DIRECTION ( 'NONE',  ( 0.000000000000000000, 0.000000000000000000, 1.000000000000000000 ) ) ;
#279 = TOROIDAL_SURFACE ( 'NONE', #179, 0.6999999999999999556, 0.2000000000000000111 ) ;
#280 =( LENGTH_UNIT ( ) NAMED_UNIT ( * ) SI_UNIT ( .MILLI., .METRE. ) );
#281 = ORIENTED_EDGE ( 'NONE', *, *, #12, .F. ) ;
#282 = AXIS2_PLACEMENT_3D ( 'NONE', #60, #58, #275 ) ;
#283 = EDGE_CURVE ( 'NONE', #90, #76, #250, .T. ) ;
#284 = CIRCLE ( 'NONE', #61, 1.250000000000000000 ) ;
#285 = PERSON_AND_ORGANIZATION ( #291, #38 ) ;
#286 = DIRECTION ( 'NONE',  ( 1.000000000000000000, 0.000000000000000000, 0.000000000000000000 ) ) ;
#287 = EDGE_LOOP ( 'NONE', ( #54, #170, #114, #125 ) ) ;
#288 = DIRECTION ( 'NONE',  ( -0.000000000000000000, -0.000000000000000000, -1.000000000000000000 ) ) ;
#289 = ORIENTED_EDGE ( 'NONE', *, *, #80, .T. ) ;
#290 = ADVANCED_FACE ( 'NONE', ( #116, #6 ), #94, .T. ) ;
#291 = PERSON ( 'NEURÈENÝ', 'NEURÈENÝ', 'NEURÈENÝ', ('NEURÈENÝ'), ('NEURÈENÝ'), ('NEURÈENÝ') ) ;
#292 = ORIENTED_EDGE ( 'NONE', *, *, #202, .F. ) ;
#293 = AXIS2_PLACEMENT_3D ( 'NONE', #30, #215, #197 ) ;
#294 = LOCAL_TIME ( 12, 28, 39.00000000000000000, #266 ) ;
#295 = CARTESIAN_POINT ( 'NONE',  ( -1.250000000000000000, 0.000000000000000000, 1.199999999999999956 ) ) ;
#296 = DIRECTION ( 'NONE',  ( 0.000000000000000000, 0.000000000000000000, 1.000000000000000000 ) ) ;
#297 = DIRECTION ( 'NONE',  ( 1.000000000000000000, 0.000000000000000000, 0.000000000000000000 ) ) ;
#298 = CIRCLE ( 'NONE', #241, 1.250000000000000000 ) ;
#299 = VERTEX_POINT ( 'NONE', #180 ) ;
#300 = DIRECTION ( 'NONE',  ( -0.000000000000000000, -0.000000000000000000, -1.000000000000000000 ) ) ;
#301 = PERSON_AND_ORGANIZATION ( #291, #38 ) ;
#302 = DIRECTION ( 'NONE',  ( -0.000000000000000000, -0.000000000000000000, -1.000000000000000000 ) ) ;
#303 = CARTESIAN_POINT ( 'NONE',  ( -0.5000000000000000000, 0.000000000000000000, 1.399999999999998579 ) ) ;
#304 = APPROVAL ( #172, 'NEURÈENÝ' ) ;
#305 = LINE ( 'NONE', #82, #115 ) ;
#306 = APPLICATION_PROTOCOL_DEFINITION ( 'international standard', 'config_control_design', 1994, #189 ) ;
#307 = LINE ( 'NONE', #198, #66 ) ;
ENDSEC;
END-ISO-10303-21;
