ISO-10303-21;
HEADER;
FILE_DESCRIPTION (( 'STEP AP203' ),
    '1' );
FILE_NAME ('c6ea.STEP',
    '2022-06-20T10:29:23',
    ( '' ),
    ( '' ),
    'SwSTEP 2.0',
    'SolidWorks 2019',
    '' );
FILE_SCHEMA (( 'CONFIG_CONTROL_DESIGN' ));
ENDSEC;

DATA;
#1 = ORIENTED_EDGE ( 'NONE', *, *, #127, .F. ) ;
#2 = ORIENTED_EDGE ( 'NONE', *, *, #178, .F. ) ;
#3 = LOCAL_TIME ( 12, 29, 23.00000000000000000, #176 ) ;
#4 = CLOSED_SHELL ( 'NONE', ( #39, #132, #290, #238, #44, #97, #55, #11, #182 ) ) ;
#5 = DIRECTION ( 'NONE',  ( -1.000000000000000000, 0.000000000000000000, 0.000000000000000000 ) ) ;
#6 = CALENDAR_DATE ( 2022, 20, 6 ) ;
#7 = AXIS2_PLACEMENT_3D ( 'NONE', #280, #255, #42 ) ;
#8 = DIRECTION ( 'NONE',  ( 1.000000000000000000, 0.000000000000000000, 0.000000000000000000 ) ) ;
#9 = APPROVAL_ROLE ( '' ) ;
#10 = DIRECTION ( 'NONE',  ( 0.000000000000000000, 0.000000000000000000, 1.000000000000000000 ) ) ;
#11 = ADVANCED_FACE ( 'NONE', ( #36 ), #267, .T. ) ;
#12 = EDGE_LOOP ( 'NONE', ( #287, #196, #1, #2 ) ) ;
#13 = APPLICATION_CONTEXT ( 'configuration controlled 3d designs of mechanical parts and assemblies' ) ;
#14 = PERSON_AND_ORGANIZATION ( #147, #105 ) ;
#15 = DIRECTION ( 'NONE',  ( 0.000000000000000000, 0.000000000000000000, 1.000000000000000000 ) ) ;
#16 = EDGE_CURVE ( 'NONE', #95, #25, #54, .T. ) ;
#17 = CARTESIAN_POINT ( 'NONE',  ( -0.5000000000000000000, 0.000000000000000000, 101.2000000000000171 ) ) ;
#18 = DATE_AND_TIME ( #306, #85 ) ;
#19 = DIRECTION ( 'NONE',  ( -1.000000000000000000, 0.000000000000000000, 0.000000000000000000 ) ) ;
#20 = ORIENTED_EDGE ( 'NONE', *, *, #219, .T. ) ;
#21 = LINE ( 'NONE', #249, #56 ) ;
#22 = ADVANCED_BREP_SHAPE_REPRESENTATION ( 'c6ea', ( #227, #266 ), #134 ) ;
#23 = DIRECTION ( 'NONE',  ( -0.000000000000000000, -0.000000000000000000, -1.000000000000000000 ) ) ;
#24 = EDGE_LOOP ( 'NONE', ( #79, #193, #189, #284 ) ) ;
#25 = VERTEX_POINT ( 'NONE', #262 ) ;
#26 = DIRECTION ( 'NONE',  ( -0.000000000000000000, -0.000000000000000000, -1.000000000000000000 ) ) ;
#27 = DIRECTION ( 'NONE',  ( 1.000000000000000000, 0.000000000000000000, 0.000000000000000000 ) ) ;
#28 = DIRECTION ( 'NONE',  ( 0.000000000000000000, 0.000000000000000000, 1.000000000000000000 ) ) ;
#29 = CYLINDRICAL_SURFACE ( 'NONE', #171, 1.250000000000000000 ) ;
#30 = CIRCLE ( 'NONE', #288, 0.5000000000000000000 ) ;
#31 = CC_DESIGN_DATE_AND_TIME_ASSIGNMENT ( #217, #148, ( #204 ) ) ;
#32 = VERTEX_POINT ( 'NONE', #270 ) ;
#33 = PERSON_AND_ORGANIZATION_ROLE ( 'design_owner' ) ;
#34 = PERSON_AND_ORGANIZATION ( #147, #105 ) ;
#35 = TOROIDAL_SURFACE ( 'NONE', #206, 0.6999999999999999556, 0.2000000000000000111 ) ;
#36 = FACE_OUTER_BOUND ( 'NONE', #190, .T. ) ;
#37 = CIRCLE ( 'NONE', #59, 1.250000000000000000 ) ;
#38 = PLANE ( 'NONE',  #254 ) ;
#39 = ADVANCED_FACE ( 'NONE', ( #151 ), #35, .F. ) ;
#40 = COORDINATED_UNIVERSAL_TIME_OFFSET ( 1, 0, .AHEAD. ) ;
#41 = CARTESIAN_POINT ( 'NONE',  ( 0.000000000000000000, 0.000000000000000000, 101.2000000000000171 ) ) ;
#42 = DIRECTION ( 'NONE',  ( 1.000000000000000000, 0.000000000000000000, 0.000000000000000000 ) ) ;
#43 = UNCERTAINTY_MEASURE_WITH_UNIT (LENGTH_MEASURE( 1.000000000000000082E-05 ), #146, 'distance_accuracy_value', 'NONE');
#44 = ADVANCED_FACE ( 'NONE', ( #170, #244 ), #38, .T. ) ;
#45 = APPROVAL_PERSON_ORGANIZATION ( #264, #136, #294 ) ;
#46 = EDGE_LOOP ( 'NONE', ( #232, #231 ) ) ;
#47 = DIRECTION ( 'NONE',  ( 0.000000000000000000, -1.000000000000000000, 0.000000000000000000 ) ) ;
#48 = ORIENTED_EDGE ( 'NONE', *, *, #83, .T. ) ;
#49 =( NAMED_UNIT ( * ) SI_UNIT ( $, .STERADIAN. ) SOLID_ANGLE_UNIT ( ) );
#50 = CC_DESIGN_APPROVAL ( #136, ( #204 ) ) ;
#51 = DIRECTION ( 'NONE',  ( -0.000000000000000000, -0.000000000000000000, -1.000000000000000000 ) ) ;
#52 = APPROVAL ( #220, 'NEURÈENÝ' ) ;
#53 = DIRECTION ( 'NONE',  ( -1.000000000000000000, 0.000000000000000000, 0.000000000000000000 ) ) ;
#54 = CIRCLE ( 'NONE', #269, 0.6999999999999999556 ) ;
#55 = ADVANCED_FACE ( 'NONE', ( #124 ), #130, .T. ) ;
#56 = VECTOR ( 'NONE', #139, 1000.000000000000000 ) ;
#57 = APPLICATION_CONTEXT ( 'configuration controlled 3d designs of mechanical parts and assemblies' ) ;
#58 = DIRECTION ( 'NONE',  ( 1.000000000000000000, 0.000000000000000000, -0.000000000000000000 ) ) ;
#59 = AXIS2_PLACEMENT_3D ( 'NONE', #88, #133, #163 ) ;
#60 = DIRECTION ( 'NONE',  ( -0.000000000000000000, -0.000000000000000000, -1.000000000000000000 ) ) ;
#61 = PERSON_AND_ORGANIZATION_ROLE ( 'creator' ) ;
#62 = FACE_OUTER_BOUND ( 'NONE', #46, .T. ) ;
#63 = EDGE_CURVE ( 'NONE', #256, #221, #30, .T. ) ;
#64 = DIRECTION ( 'NONE',  ( 1.000000000000000000, 0.000000000000000000, -0.000000000000000000 ) ) ;
#65 = CC_DESIGN_PERSON_AND_ORGANIZATION_ASSIGNMENT ( #14, #70, ( #195 ) ) ;
#66 = CALENDAR_DATE ( 2022, 20, 6 ) ;
#67 = AXIS2_PLACEMENT_3D ( 'NONE', #135, #226, #209 ) ;
#68 = FACE_OUTER_BOUND ( 'NONE', #110, .T. ) ;
#69 = ORIENTED_EDGE ( 'NONE', *, *, #16, .F. ) ;
#70 = PERSON_AND_ORGANIZATION_ROLE ( 'classification_officer' ) ;
#71 = CARTESIAN_POINT ( 'NONE',  ( 1.250000000000000000, 1.530808498934191571E-16, 0.000000000000000000 ) ) ;
#72 = ORIENTED_EDGE ( 'NONE', *, *, #93, .F. ) ;
#73 = AXIS2_PLACEMENT_3D ( 'NONE', #154, #87, #131 ) ;
#74 = CARTESIAN_POINT ( 'NONE',  ( -0.6999999999999999556, 8.572527594031473190E-17, 1.199999999999999289 ) ) ;
#75 = EDGE_LOOP ( 'NONE', ( #96, #117 ) ) ;
#76 = AXIS2_PLACEMENT_3D ( 'NONE', #277, #251, #307 ) ;
#77 = ORIENTED_EDGE ( 'NONE', *, *, #127, .T. ) ;
#78 = CARTESIAN_POINT ( 'NONE',  ( 0.000000000000000000, 0.000000000000000000, 101.2000000000000171 ) ) ;
#79 = ORIENTED_EDGE ( 'NONE', *, *, #210, .F. ) ;
#80 = AXIS2_PLACEMENT_3D ( 'NONE', #186, #15, #64 ) ;
#81 = CARTESIAN_POINT ( 'NONE',  ( 1.250000000000000000, 1.530808498934191571E-16, 1.199999999999999956 ) ) ;
#82 = ORIENTED_EDGE ( 'NONE', *, *, #178, .T. ) ;
#83 = EDGE_CURVE ( 'NONE', #283, #215, #198, .T. ) ;
#84 = LOCAL_TIME ( 12, 29, 23.00000000000000000, #197 ) ;
#85 = LOCAL_TIME ( 12, 29, 23.00000000000000000, #40 ) ;
#86 = DIRECTION ( 'NONE',  ( 0.000000000000000000, 0.000000000000000000, 1.000000000000000000 ) ) ;
#87 = DIRECTION ( 'NONE',  ( 0.000000000000000000, 0.000000000000000000, 1.000000000000000000 ) ) ;
#88 = CARTESIAN_POINT ( 'NONE',  ( 0.000000000000000000, 0.000000000000000000, 0.000000000000000000 ) ) ;
#89 = EDGE_CURVE ( 'NONE', #119, #32, #246, .T. ) ;
#90 = DIRECTION ( 'NONE',  ( -0.000000000000000000, -0.000000000000000000, -1.000000000000000000 ) ) ;
#91 = FACE_OUTER_BOUND ( 'NONE', #272, .T. ) ;
#92 = ORIENTED_EDGE ( 'NONE', *, *, #155, .T. ) ;
#93 = EDGE_CURVE ( 'NONE', #256, #95, #162, .T. ) ;
#94 = CARTESIAN_POINT ( 'NONE',  ( 0.000000000000000000, 0.000000000000000000, 1.199999999999999956 ) ) ;
#95 = VERTEX_POINT ( 'NONE', #74 ) ;
#96 = ORIENTED_EDGE ( 'NONE', *, *, #252, .T. ) ;
#97 = ADVANCED_FACE ( 'NONE', ( #62 ), #253, .F. ) ;
#98 = AXIS2_PLACEMENT_3D ( 'NONE', #41, #108, #58 ) ;
#99 = CARTESIAN_POINT ( 'NONE',  ( 0.000000000000000000, 0.000000000000000000, 1.399999999999998579 ) ) ;
#100 = FACE_OUTER_BOUND ( 'NONE', #229, .T. ) ;
#101 = CARTESIAN_POINT ( 'NONE',  ( 0.000000000000000000, 0.000000000000000000, 1.399999999999998579 ) ) ;
#102 = EDGE_CURVE ( 'NONE', #258, #119, #240, .T. ) ;
#103 = DATE_AND_TIME ( #6, #84 ) ;
#104 = PERSON_AND_ORGANIZATION ( #147, #105 ) ;
#105 = ORGANIZATION ( 'NEURÈENÝ', 'NEURÈENÝ', '' ) ;
#106 = APPROVAL_PERSON_ORGANIZATION ( #300, #281, #111 ) ;
#107 = ORIENTED_EDGE ( 'NONE', *, *, #83, .F. ) ;
#108 = DIRECTION ( 'NONE',  ( 0.000000000000000000, 0.000000000000000000, 1.000000000000000000 ) ) ;
#109 = VECTOR ( 'NONE', #51, 1000.000000000000000 ) ;
#110 = EDGE_LOOP ( 'NONE', ( #107, #237, #164, #192 ) ) ;
#111 = APPROVAL_ROLE ( '' ) ;
#112 = AXIS2_PLACEMENT_3D ( 'NONE', #144, #236, #282 ) ;
#113 = DIRECTION ( 'NONE',  ( 1.000000000000000000, 0.000000000000000000, 0.000000000000000000 ) ) ;
#114 = EDGE_CURVE ( 'NONE', #215, #256, #157, .T. ) ;
#115 = DIRECTION ( 'NONE',  ( 0.000000000000000000, 0.000000000000000000, 1.000000000000000000 ) ) ;
#116 = CC_DESIGN_PERSON_AND_ORGANIZATION_ASSIGNMENT ( #245, #61, ( #234 ) ) ;
#117 = ORIENTED_EDGE ( 'NONE', *, *, #102, .T. ) ;
#118 = APPLICATION_PROTOCOL_DEFINITION ( 'international standard', 'config_control_design', 1994, #13 ) ;
#119 = VERTEX_POINT ( 'NONE', #228 ) ;
#120 = DIRECTION ( 'NONE',  ( -0.000000000000000000, -0.000000000000000000, -1.000000000000000000 ) ) ;
#121 = AXIS2_PLACEMENT_3D ( 'NONE', #303, #23, #19 ) ;
#122 = ORIENTED_EDGE ( 'NONE', *, *, #302, .F. ) ;
#123 = CC_DESIGN_PERSON_AND_ORGANIZATION_ASSIGNMENT ( #153, #33, ( #273 ) ) ;
#124 = FACE_OUTER_BOUND ( 'NONE', #24, .T. ) ;
#125 = APPROVAL_DATE_TIME ( #271, #136 ) ;
#126 = APPLICATION_PROTOCOL_DEFINITION ( 'international standard', 'config_control_design', 1994, #57 ) ;
#127 = EDGE_CURVE ( 'NONE', #25, #95, #165, .T. ) ;
#128 = CIRCLE ( 'NONE', #67, 0.5000000000000000000 ) ;
#129 = CC_DESIGN_APPROVAL ( #281, ( #195 ) ) ;
#130 = CYLINDRICAL_SURFACE ( 'NONE', #223, 0.5000000000000000000 ) ;
#131 = DIRECTION ( 'NONE',  ( 1.000000000000000000, 0.000000000000000000, 0.000000000000000000 ) ) ;
#132 = ADVANCED_FACE ( 'NONE', ( #68 ), #205, .T. ) ;
#133 = DIRECTION ( 'NONE',  ( 0.000000000000000000, 0.000000000000000000, 1.000000000000000000 ) ) ;
#134 =( GEOMETRIC_REPRESENTATION_CONTEXT ( 3 ) GLOBAL_UNCERTAINTY_ASSIGNED_CONTEXT ( ( #43 ) ) GLOBAL_UNIT_ASSIGNED_CONTEXT ( ( #146, #166, #49 ) ) REPRESENTATION_CONTEXT ( 'NONE', 'WORKASPACE' ) );
#135 = CARTESIAN_POINT ( 'NONE',  ( 0.000000000000000000, 0.000000000000000000, 1.399999999999998579 ) ) ;
#136 = APPROVAL ( #241, 'NEURÈENÝ' ) ;
#137 = VERTEX_POINT ( 'NONE', #71 ) ;
#138 = PRODUCT_RELATED_PRODUCT_CATEGORY ( 'detail', '', ( #273 ) ) ;
#139 = DIRECTION ( 'NONE',  ( -0.000000000000000000, -0.000000000000000000, -1.000000000000000000 ) ) ;
#140 = ORIENTED_EDGE ( 'NONE', *, *, #302, .T. ) ;
#141 = DIRECTION ( 'NONE',  ( 0.000000000000000000, 0.000000000000000000, 1.000000000000000000 ) ) ;
#142 = CIRCLE ( 'NONE', #260, 0.2000000000000000944 ) ;
#143 = CIRCLE ( 'NONE', #76, 1.250000000000000000 ) ;
#144 = CARTESIAN_POINT ( 'NONE',  ( -0.6999999999999999556, 8.572527594031471957E-17, 1.399999999999998579 ) ) ;
#145 = ORIENTED_EDGE ( 'NONE', *, *, #252, .F. ) ;
#146 =( LENGTH_UNIT ( ) NAMED_UNIT ( * ) SI_UNIT ( .MILLI., .METRE. ) );
#147 = PERSON ( 'NEURÈENÝ', 'NEURÈENÝ', 'NEURÈENÝ', ('NEURÈENÝ'), ('NEURÈENÝ'), ('NEURÈENÝ') ) ;
#148 = DATE_TIME_ROLE ( 'creation_date' ) ;
#149 = CARTESIAN_POINT ( 'NONE',  ( 0.000000000000000000, 0.000000000000000000, 1.199999999999999956 ) ) ;
#150 = PERSON_AND_ORGANIZATION_ROLE ( 'creator' ) ;
#151 = FACE_OUTER_BOUND ( 'NONE', #12, .T. ) ;
#152 = LOCAL_TIME ( 12, 29, 23.00000000000000000, #239 ) ;
#153 = PERSON_AND_ORGANIZATION ( #147, #105 ) ;
#154 = CARTESIAN_POINT ( 'NONE',  ( 0.000000000000000000, 0.000000000000000000, 101.2000000000000171 ) ) ;
#155 = EDGE_CURVE ( 'NONE', #137, #32, #37, .T. ) ;
#156 = SECURITY_CLASSIFICATION_LEVEL ( 'unclassified' ) ;
#157 = LINE ( 'NONE', #248, #169 ) ;
#158 = CARTESIAN_POINT ( 'NONE',  ( 0.000000000000000000, 0.000000000000000000, 1.399999999999998579 ) ) ;
#159 = CARTESIAN_POINT ( 'NONE',  ( 0.000000000000000000, 0.000000000000000000, 1.199999999999999956 ) ) ;
#160 = APPROVAL_STATUS ( 'not_yet_approved' ) ;
#161 = DIRECTION ( 'NONE',  ( 0.000000000000000000, 0.000000000000000000, -1.000000000000000000 ) ) ;
#162 = CIRCLE ( 'NONE', #112, 0.1999999999999999833 ) ;
#163 = DIRECTION ( 'NONE',  ( 1.000000000000000000, 0.000000000000000000, 0.000000000000000000 ) ) ;
#164 = ORIENTED_EDGE ( 'NONE', *, *, #213, .T. ) ;
#165 = CIRCLE ( 'NONE', #7, 0.6999999999999999556 ) ;
#166 =( NAMED_UNIT ( * ) PLANE_ANGLE_UNIT ( ) SI_UNIT ( $, .RADIAN. ) );
#167 = ORIENTED_EDGE ( 'NONE', *, *, #89, .T. ) ;
#168 = ORIENTED_EDGE ( 'NONE', *, *, #102, .F. ) ;
#169 = VECTOR ( 'NONE', #179, 1000.000000000000000 ) ;
#170 = FACE_BOUND ( 'NONE', #187, .T. ) ;
#171 = AXIS2_PLACEMENT_3D ( 'NONE', #211, #120, #53 ) ;
#172 = ORIENTED_EDGE ( 'NONE', *, *, #257, .T. ) ;
#173 = PRODUCT_DEFINITION_SHAPE ( 'NONE', 'NONE',  #204 ) ;
#174 = CIRCLE ( 'NONE', #202, 1.250000000000000000 ) ;
#175 = ORIENTED_EDGE ( 'NONE', *, *, #89, .F. ) ;
#176 = COORDINATED_UNIVERSAL_TIME_OFFSET ( 1, 0, .AHEAD. ) ;
#177 = DIRECTION ( 'NONE',  ( 1.000000000000000000, 0.000000000000000000, 0.000000000000000000 ) ) ;
#178 = EDGE_CURVE ( 'NONE', #221, #25, #142, .T. ) ;
#179 = DIRECTION ( 'NONE',  ( -0.000000000000000000, -0.000000000000000000, -1.000000000000000000 ) ) ;
#180 = PERSON_AND_ORGANIZATION_ROLE ( 'design_supplier' ) ;
#181 = DIRECTION ( 'NONE',  ( 1.000000000000000000, 0.000000000000000000, 0.000000000000000000 ) ) ;
#182 = ADVANCED_FACE ( 'NONE', ( #230 ), #218, .F. ) ;
#183 = DIRECTION ( 'NONE',  ( -1.000000000000000000, 0.000000000000000000, 0.000000000000000000 ) ) ;
#184 = AXIS2_PLACEMENT_3D ( 'NONE', #158, #115, #113 ) ;
#185 = COORDINATED_UNIVERSAL_TIME_OFFSET ( 1, 0, .AHEAD. ) ;
#186 = CARTESIAN_POINT ( 'NONE',  ( 0.000000000000000000, 0.000000000000000000, 0.000000000000000000 ) ) ;
#187 = EDGE_LOOP ( 'NONE', ( #77, #259 ) ) ;
#188 = CARTESIAN_POINT ( 'NONE',  ( -0.5000000000000000000, 0.000000000000000000, 1.399999999999998579 ) ) ;
#189 = ORIENTED_EDGE ( 'NONE', *, *, #114, .T. ) ;
#190 = EDGE_LOOP ( 'NONE', ( #172, #48 ) ) ;
#191 = CARTESIAN_POINT ( 'NONE',  ( 0.000000000000000000, 0.000000000000000000, 0.000000000000000000 ) ) ;
#192 = ORIENTED_EDGE ( 'NONE', *, *, #114, .F. ) ;
#193 = ORIENTED_EDGE ( 'NONE', *, *, #257, .F. ) ;
#194 = CARTESIAN_POINT ( 'NONE',  ( 0.000000000000000000, 0.000000000000000000, 1.199999999999999956 ) ) ;
#195 = SECURITY_CLASSIFICATION ( '', '', #156 ) ;
#196 = ORIENTED_EDGE ( 'NONE', *, *, #93, .T. ) ;
#197 = COORDINATED_UNIVERSAL_TIME_OFFSET ( 1, 0, .AHEAD. ) ;
#198 = CIRCLE ( 'NONE', #73, 0.5000000000000000000 ) ;
#199 = DIRECTION ( 'NONE',  ( -0.000000000000000000, -0.000000000000000000, -1.000000000000000000 ) ) ;
#200 = APPROVAL_DATE_TIME ( #103, #52 ) ;
#201 = CARTESIAN_POINT ( 'NONE',  ( 0.000000000000000000, 0.000000000000000000, 0.000000000000000000 ) ) ;
#202 = AXIS2_PLACEMENT_3D ( 'NONE', #201, #296, #207 ) ;
#203 = APPROVAL_DATE_TIME ( #18, #281 ) ;
#204 = PRODUCT_DEFINITION ( 'NEZNÁMÝ', '', #234, #299 ) ;
#205 = CYLINDRICAL_SURFACE ( 'NONE', #121, 0.5000000000000000000 ) ;
#206 = AXIS2_PLACEMENT_3D ( 'NONE', #99, #10, #177 ) ;
#207 = DIRECTION ( 'NONE',  ( 1.000000000000000000, 0.000000000000000000, 0.000000000000000000 ) ) ;
#208 = AXIS2_PLACEMENT_3D ( 'NONE', #94, #90, #183 ) ;
#209 = DIRECTION ( 'NONE',  ( 1.000000000000000000, 0.000000000000000000, 0.000000000000000000 ) ) ;
#210 = EDGE_CURVE ( 'NONE', #283, #221, #21, .T. ) ;
#211 = CARTESIAN_POINT ( 'NONE',  ( 0.000000000000000000, 0.000000000000000000, 1.199999999999999956 ) ) ;
#212 = APPROVAL_PERSON_ORGANIZATION ( #104, #52, #9 ) ;
#213 = EDGE_CURVE ( 'NONE', #221, #256, #128, .T. ) ;
#214 = CARTESIAN_POINT ( 'NONE',  ( 1.250000000000000000, 1.530808498934191571E-16, 1.199999999999999956 ) ) ;
#215 = VERTEX_POINT ( 'NONE', #17 ) ;
#216 = EDGE_LOOP ( 'NONE', ( #72, #242, #82, #69 ) ) ;
#217 = DATE_AND_TIME ( #293, #152 ) ;
#218 = TOROIDAL_SURFACE ( 'NONE', #184, 0.6999999999999999556, 0.2000000000000000111 ) ;
#219 = EDGE_CURVE ( 'NONE', #32, #137, #174, .T. ) ;
#220 = APPROVAL_STATUS ( 'not_yet_approved' ) ;
#221 = VERTEX_POINT ( 'NONE', #274 ) ;
#222 = DATE_AND_TIME ( #66, #278 ) ;
#223 = AXIS2_PLACEMENT_3D ( 'NONE', #291, #199, #5 ) ;
#224 = CARTESIAN_POINT ( 'NONE',  ( -1.250000000000000000, 0.000000000000000000, 1.199999999999999956 ) ) ;
#225 = PERSON_AND_ORGANIZATION ( #147, #105 ) ;
#226 = DIRECTION ( 'NONE',  ( 0.000000000000000000, 0.000000000000000000, 1.000000000000000000 ) ) ;
#227 = MANIFOLD_SOLID_BREP ( 'Zaoblit1', #4 ) ;
#228 = CARTESIAN_POINT ( 'NONE',  ( -1.250000000000000000, 0.000000000000000000, 1.199999999999999956 ) ) ;
#229 = EDGE_LOOP ( 'NONE', ( #168, #140, #92, #175 ) ) ;
#230 = FACE_OUTER_BOUND ( 'NONE', #216, .T. ) ;
#231 = ORIENTED_EDGE ( 'NONE', *, *, #155, .F. ) ;
#232 = ORIENTED_EDGE ( 'NONE', *, *, #219, .F. ) ;
#233 = DIRECTION ( 'NONE',  ( 1.000000000000000000, 0.000000000000000000, 0.000000000000000000 ) ) ;
#234 = PRODUCT_DEFINITION_FORMATION_WITH_SPECIFIED_SOURCE ( 'LIBOVOLNÝ', '', #273, .NOT_KNOWN. ) ;
#235 = MECHANICAL_CONTEXT ( 'NONE', #13, 'mechanical' ) ;
#236 = DIRECTION ( 'NONE',  ( 1.224646799147353207E-16, 1.000000000000000000, -0.000000000000000000 ) ) ;
#237 = ORIENTED_EDGE ( 'NONE', *, *, #210, .T. ) ;
#238 = ADVANCED_FACE ( 'NONE', ( #91 ), #301, .T. ) ;
#239 = COORDINATED_UNIVERSAL_TIME_OFFSET ( 1, 0, .AHEAD. ) ;
#240 = CIRCLE ( 'NONE', #286, 1.250000000000000000 ) ;
#241 = APPROVAL_STATUS ( 'not_yet_approved' ) ;
#242 = ORIENTED_EDGE ( 'NONE', *, *, #213, .F. ) ;
#243 = VECTOR ( 'NONE', #26, 1000.000000000000000 ) ;
#244 = FACE_OUTER_BOUND ( 'NONE', #75, .T. ) ;
#245 = PERSON_AND_ORGANIZATION ( #147, #105 ) ;
#246 = LINE ( 'NONE', #224, #109 ) ;
#247 = DATE_TIME_ROLE ( 'classification_date' ) ;
#248 = CARTESIAN_POINT ( 'NONE',  ( -0.5000000000000000000, 0.000000000000000000, 101.2000000000000171 ) ) ;
#249 = CARTESIAN_POINT ( 'NONE',  ( 0.5000000000000000000, 6.123233995736766036E-17, 101.2000000000000171 ) ) ;
#250 = CC_DESIGN_DATE_AND_TIME_ASSIGNMENT ( #222, #247, ( #195 ) ) ;
#251 = DIRECTION ( 'NONE',  ( 0.000000000000000000, 0.000000000000000000, 1.000000000000000000 ) ) ;
#252 = EDGE_CURVE ( 'NONE', #119, #258, #143, .T. ) ;
#253 = PLANE ( 'NONE',  #80 ) ;
#254 = AXIS2_PLACEMENT_3D ( 'NONE', #149, #28, #289 ) ;
#255 = DIRECTION ( 'NONE',  ( -0.000000000000000000, -0.000000000000000000, -1.000000000000000000 ) ) ;
#256 = VERTEX_POINT ( 'NONE', #188 ) ;
#257 = EDGE_CURVE ( 'NONE', #215, #283, #304, .T. ) ;
#258 = VERTEX_POINT ( 'NONE', #81 ) ;
#259 = ORIENTED_EDGE ( 'NONE', *, *, #16, .T. ) ;
#260 = AXIS2_PLACEMENT_3D ( 'NONE', #275, #47, #161 ) ;
#261 = LINE ( 'NONE', #214, #243 ) ;
#262 = CARTESIAN_POINT ( 'NONE',  ( 0.6999999999999999556, 0.000000000000000000, 1.199999999999999289 ) ) ;
#263 = CARTESIAN_POINT ( 'NONE',  ( 0.5000000000000000000, 6.123233995736766036E-17, 101.2000000000000171 ) ) ;
#264 = PERSON_AND_ORGANIZATION ( #147, #105 ) ;
#265 = CC_DESIGN_PERSON_AND_ORGANIZATION_ASSIGNMENT ( #34, #150, ( #204 ) ) ;
#266 = AXIS2_PLACEMENT_3D ( 'NONE', #191, #141, #233 ) ;
#267 = PLANE ( 'NONE',  #98 ) ;
#268 = CALENDAR_DATE ( 2022, 20, 6 ) ;
#269 = AXIS2_PLACEMENT_3D ( 'NONE', #194, #60, #8 ) ;
#270 = CARTESIAN_POINT ( 'NONE',  ( -1.250000000000000000, 0.000000000000000000, 0.000000000000000000 ) ) ;
#271 = DATE_AND_TIME ( #268, #3 ) ;
#272 = EDGE_LOOP ( 'NONE', ( #122, #145, #167, #20 ) ) ;
#273 = PRODUCT ( 'c6ea', 'c6ea', '', ( #235 ) ) ;
#274 = CARTESIAN_POINT ( 'NONE',  ( 0.5000000000000000000, 6.123233995736766036E-17, 1.399999999999998579 ) ) ;
#275 = CARTESIAN_POINT ( 'NONE',  ( 0.6999999999999999556, 0.000000000000000000, 1.399999999999998579 ) ) ;
#276 = CC_DESIGN_PERSON_AND_ORGANIZATION_ASSIGNMENT ( #225, #180, ( #234 ) ) ;
#277 = CARTESIAN_POINT ( 'NONE',  ( 0.000000000000000000, 0.000000000000000000, 1.199999999999999956 ) ) ;
#278 = LOCAL_TIME ( 12, 29, 23.00000000000000000, #185 ) ;
#279 = CC_DESIGN_APPROVAL ( #52, ( #234 ) ) ;
#280 = CARTESIAN_POINT ( 'NONE',  ( 0.000000000000000000, 0.000000000000000000, 1.199999999999999956 ) ) ;
#281 = APPROVAL ( #160, 'NEURÈENÝ' ) ;
#282 = DIRECTION ( 'NONE',  ( -1.000000000000000000, 1.224646799147352714E-16, 0.000000000000000000 ) ) ;
#283 = VERTEX_POINT ( 'NONE', #263 ) ;
#284 = ORIENTED_EDGE ( 'NONE', *, *, #63, .T. ) ;
#285 = DIRECTION ( 'NONE',  ( 0.000000000000000000, 0.000000000000000000, 1.000000000000000000 ) ) ;
#286 = AXIS2_PLACEMENT_3D ( 'NONE', #159, #298, #181 ) ;
#287 = ORIENTED_EDGE ( 'NONE', *, *, #63, .F. ) ;
#288 = AXIS2_PLACEMENT_3D ( 'NONE', #101, #86, #295 ) ;
#289 = DIRECTION ( 'NONE',  ( 1.000000000000000000, 0.000000000000000000, -0.000000000000000000 ) ) ;
#290 = ADVANCED_FACE ( 'NONE', ( #100 ), #29, .T. ) ;
#291 = CARTESIAN_POINT ( 'NONE',  ( 0.000000000000000000, 0.000000000000000000, 101.2000000000000171 ) ) ;
#292 = AXIS2_PLACEMENT_3D ( 'NONE', #78, #285, #27 ) ;
#293 = CALENDAR_DATE ( 2022, 20, 6 ) ;
#294 = APPROVAL_ROLE ( '' ) ;
#295 = DIRECTION ( 'NONE',  ( 1.000000000000000000, 0.000000000000000000, 0.000000000000000000 ) ) ;
#296 = DIRECTION ( 'NONE',  ( 0.000000000000000000, 0.000000000000000000, 1.000000000000000000 ) ) ;
#297 = SHAPE_DEFINITION_REPRESENTATION ( #173, #22 ) ;
#298 = DIRECTION ( 'NONE',  ( 0.000000000000000000, 0.000000000000000000, 1.000000000000000000 ) ) ;
#299 = DESIGN_CONTEXT ( 'detailed design', #57, 'design' ) ;
#300 = PERSON_AND_ORGANIZATION ( #147, #105 ) ;
#301 = CYLINDRICAL_SURFACE ( 'NONE', #208, 1.250000000000000000 ) ;
#302 = EDGE_CURVE ( 'NONE', #258, #137, #261, .T. ) ;
#303 = CARTESIAN_POINT ( 'NONE',  ( 0.000000000000000000, 0.000000000000000000, 101.2000000000000171 ) ) ;
#304 = CIRCLE ( 'NONE', #292, 0.5000000000000000000 ) ;
#305 = CC_DESIGN_SECURITY_CLASSIFICATION ( #195, ( #234 ) ) ;
#306 = CALENDAR_DATE ( 2022, 20, 6 ) ;
#307 = DIRECTION ( 'NONE',  ( 1.000000000000000000, 0.000000000000000000, 0.000000000000000000 ) ) ;
ENDSEC;
END-ISO-10303-21;
